Song name
# A B C D E F G H I J K L M N O P Q R S T U V W X Y Z

Sum 41 - Intro tab

Sum 41
Intro
Chuck
2004 Island records
Submitted by: jeremyunderground41@yahoo.com

Key: F#


Deryck Whibley = Guitar 1
Dave Baksh = Guitar 2


Tuning: Standard EADGBe


Chords used:
Ebm - x68876
B -   x24442
C# -  x46664
F# -  244322


Part 1:

Deryck:
      Ebm           B      C#
e|-------------|----------|---|
B|-------------|----2-4-2-|---|
G|-8---------8-|-4--------|-6-|
D|-8--8-9-8--8-|-4--------|-6-|
A|-6---------6-|-2--------|-4-|
E|-------------|----------|---|

Dave:
      Ebm          B       C#
e|-------------|-2----|----------|
B|-------------|-4----|----------|
G|-------------|-4----|----------|
D|--------3--4-|------|-----4--3-|
A|-------------|------|----------|
E|-------------|------|----------|


Part 2:
Deryck:
      Ebm           B      C#
e|-------------|----------|---|
B|-------------|----2-4-2-|---|
G|-8---------8-|-4--------|-6-|
D|-8--8-9-8--8-|-4--------|-6-|
A|-6---------6-|-2--------|-4-|
E|-------------|----------|---|

Dave:
      Ebm           B        C#
e|----------------|-2----|----------|
B|----------------|-4----|----------|
G|-8--------------|-4----|----------|
D|-8--3-5-3--3--4-|------|-----4--3-|
A|-6--------------|------|----------|
E|----------------|------|----------|


Part 3: x2
Deryck:
      Ebm           B      C#
e|-------------|----------|---|
B|-------------|----2-4-2-|---|
G|-8---------8-|-4--------|-6-|
D|-8--8-9-8--8-|-4--------|-6-|
A|-6---------6-|-2--------|-4-|
E|-------------|----------|---|

Dave:
          Ebm                B           C#
e|----------------------|-----6h7p6-|---2h4-|
B|----------6-6h7-------|-7-9-------|-2-----|
G|-8----6-8-------------|-----------|-------|
D|-8--8------------3--4-|-----------|-------|
A|-6--------------------|-----------|-------|
E|----------------------|-----------|-------|
Tap to rate this tab
# A B C D E F G H I J K L M N O P Q R S T U V W X Y Z