Song name
# A B C D E F G H I J K L M N O P Q R S T U V W X Y Z

Sum 41 - Over My Head Better Off Dead Acoustic tab

-------------------------------------------------------------------------------
            Over my head (Better off Dead) Acoustic - Sum41
-------------------------------------------------------------------------------
Tabbed by: Darren Ong
E-mail: darrenong92@yahoo.com


This is my version of "over my head" by Sum41 that they've never played in the same way.
Figure out the strumming yourself.. and find the proper bass note with where you start singing.
This song is very easy and it sounds great if you know how to adapt correctly, this tab isn't
perfect when it comes to the lyric timing but if you are good enough you will be able to 
play it just fine.

Tuning: E A D G B A





Intro:

e|---0-0-0-0------0--0--0--0------------0-0-0-0--------------0-0-0-0----------|
B|---0-0-0-0------0--0--0--0------------0-0-0-0--------------0-0-0-0----------|
G|---5-5-5-5------0--0--0--0------------0-0-0-0--------------7-7-7-7----------| x3
D|---0-0-0-0------9--9--9--9------------4-4-4-4--------------0-0-0-0----------|
A|---7-7-7-7------10-10-10-10-----------5-5-5-5--------------9-9-9-9----------|
E|---x-x-x-x------x--x--x---x-----------x-x-x-x--------------x-x-x-x----------|

Verse:

e|---------------0-------------------------------0----------------------------|
B|---------------0-------------------------------0----------------------------|
G|---------------5-------------------------------0----------------------------|
D|---------------0-------------------------------9----------------------------|
A|---------------7-------------------------------10---------------------------|
E|---------------x-------------------------------x----------------------------|
        What happened to you..          you've played the victim...
        What I thought was true..               is made of fiction...

e|----------0--------------0--------------------------------------------------|
B|----------0--------------0--------------------------------------------------|
G|----------0--------------0--------------------------------------------------|
D|----------4--------------2--------------------------------------------------|
A|----------5--------------3--------------------------------------------------|
E|----------x--------------x--------------------------------------------------|
        For so long now in this game..
        I'm following the same..


Prechorus:

e|---------------0------------------0-----------------------------------------|
B|---------------0------------------0-----------------------------------------|
G|---------------0------------------0-----------------------------------------|
D|--(4)(4)-------2------------------4----------------------------2------------|
A|--(5)(5)-------3------------------5----------------------------2------------|
E|---------------x------------------x----------------------------0------------|
           But if I try...   To make sense of this...    Mess I'm in...
e|-----------------------------------0----------------------------------------|
B|-----------------------------------0----------------------------------------|
G|---0-------------------------------0-------------0------------------0-------|
D|---0-------------------------------2-------------0------------------2--x5---|
A|---2-------------------------------3-------------2------------------2-------|
E|---3---------------------------------------------3------------------0-------|
     I'm not sure       where I should Begin, I'm falling I'm falling....

       (pause)

               "Now I'm in..!!!"

Chorus:

e|----------------------------------------------------------------------------|
B|------------------------------0---------------------------------------------|
G|------------------------------0------------------------0--------------------|
D|----2-------------------------2------------------------0--------------------|
A|----2-------------------------3------------------------2--------------------|
E|----0--------------------------------------------------3--------------------|
   Over my head      With something not said   completely misread
   Now I can see    How fake you can be      This hypocracy's beginning

e|----------------------------------------------------------------------------|
B|---0------------------------------------------------------------------------|
G|---0------------------------------------------------------------------------|
D|---4------------------------------------------------------------------------|
A|---5------------------------------------------------------------------------|
E|----------------------------------------------------------------------------|
 I;m better off dead
   to get to me....




Bridge:

e|---------------------------------------------------------------------------|
B|---------------------------------------------------------------------------|
G|-------------------------------------0-------------------------------------|
D|---2----------2----------------------4-------------------------------------|
A|---2----------3----2-----------------5-------------------------------------|
E|---0---------------3-------------------------------------------------------|
    This came all before...  Those who suffer more..
  I'm too awake for this to Be a nightmare
  What's with my disgrace...


^ this part is also what is played "who said it.. was easy.. to put back all these 
pieces (let last note ring (x54000))"



e|---------------------------------------------------------------------------|
B|---------------------------------------------------------------------------|
G|---------------------------------------------------------------------------|
D|--2-----2------------------------------------------------------------------|
A|--2-----3-----------------2-2--2-2-----------------------------------------|
E|--0-----------------------3-3--3-3-----------------------------------------|
 No one plans for it to.. BLOW UP, IN THEIR FACE

repeat bridge notes



Intro
Verse x2
Chorus
Introx1
Verse x2
Prechorus
Chorus
Bridge xAmillion
Chorus





************************************

| /   slide up
| \   slide down
| H   hammer-on
| p   pull-off
| ~   vibrato
| +   harmonic
| x   Mute note
| B   Bend
| pb  Pre-bend
| br  Bend release
| pbr Pre-bend release
| brb Bend release bend

************************************
Tap to rate this tab
# A B C D E F G H I J K L M N O P Q R S T U V W X Y Z