Song name
# A B C D E F G H I J K L M N O P Q R S T U V W X Y Z

Sum 41 - Fat Lip tab

-----------------------------------------------------------------------------
                             Fat Lip - Sum 41
-----------------------------------------------------------------------------
Tabbed by: LastResort42
E-mail: brockbrookes@gmail.com

I CANNOT BELIEVE there is yet to be a correct tab for this amazing song posted
on Ultimate Guitar so hopefully this will be good enough to finally get those 
five stars :)
This song is played in Drop D tuning in order to get those lovely open D power
chords. I've seen it played in Drop D sharp but it is definitely NOT in 
standard tuning.

Tuning: DADGBe

  Intro:

  Guitar 1:
e|----------------------------------------------|
B|----------------------------------------------|
G|----------------------------------------------|
D|----------6-------------------6---------------|  x2
A|--------------------9-------------------9-7---|
D|----6-7-9-----6-7-9-----6-7-9-----6-7-9-------|
 |                                              |
 |Guitar 2:                                     |
e|----------------------------------------------|
B|----------------------------------------------|
G|----------------------------------------------|
D|----------------------------------------0000--| (Second time only)
A|----------------------------------------0000--|
D|----------------------------------------0000--|



  Guitar 1:
e|----------------------------------------------|
B|----------------------------------------------|
G|----------------------------------------------|
D|----------6-------------------6---------------|  
A|--------------------9-------------------9-7---|
D|----6-7-9-----6-7-9-----6-7-9-----6-7-9-------|
 |                                              |
 |Guitar 2:                                     |  x2
e|----------------------------------------------|
B|----------------------------------------------|
G|----------------------------------------------|
D|----0-2-2-----0-2-7-----0-2-2-----0-2-7-------|
A|----0-2-2-----0-2-7-----0-2-2-----0-2-7-------|
D|----0-2-2-----0-2-7-----0-2-2-----0-2-7-------|


  Verse:

  Guitar 1:
e|----------------------------------------------|
B|----------------------------------------------|
G|----------------------------------------------|
D|---2-----------4-4---2------------------------|  
A|---2---7p6-7---2-2---0---7p6-7----------------|
D|---2---------------------------7-6-4----------|
 |                                              | x2
 |Guitar 2:                                     |
e|----------------------------------------------|
B|----------------------------------------------|
G|-------6p4-6----------------|
D|---2------------------------------------------| 
A|---2------------------------------------------|
D|---2------------------------------------------|


  Guitar 1:
e|------------------------------------------------|
B|------------------------------------------------|
G|--------------------------xx6---xx6-------------|
D|--xx2---xx2---xx2---xx2---xx6---xx6---xx7---xx7-| x2
A|--xx2---xx2---xx2---xx2---xx4---xx4---xx7---xx7-|
D|--xx2---xx2---xx2---xx2---------------xx7---xx7-|
                                                 
 
  Chours:

  Guitar 1: 
e|----------------------------------------------------------|
B|----------------------------------------------------------|
G|---9-9----------------------------------------------------|
D|---9-9---9-9---11-11-11-11---6-6---7-7---6-6---7-7--------|
A|---7-7---9-9---11-11-11-11---6-6---7-7---6-6---7-7--------|
D|---------9-9---11-11-11-11---6-6---7-7---6-6---7-7--------|
 |                                                          |
 |Guitar 2:      ^11th fret^                                | x2
e|----------------------------------------------------------|
B|----------------------------------------------------------|
G|---9-9-----------------------8-8---9-9---8-8---9-9--------|
D|---9-9---9-9---11-11-11-11---x-x---x-x---x-x---x-x--------|
A|---7-7---9-9---11-11-11-11---6-6---7-7---6-6---7-7--------|
D|---------9-9---11-11-11-11--------------------------------|


  Bridge:
  
  Guitar 1:
e|------------------------------------------------------------|
B|------------------------------------------------------------|
G|---------------------------2--------------------------------|
D|--22-x-22-xx-2--22-x-22-xx-2---22-x-22-xx-2--22-xxxx-22-----|
A|--22-x-22-xx-2--22-x-22-xx-0---22-x-22-xx-2--22-xxxx-22-----|
D|--22-x-22-xx-2--22-x-22-xx-----22-x-22-xx-2--22-xxxx-22-----|

  Guitar 1:
e|---------------------------------------------|
B|---------------------------5-----------------|
G|-------9---------8---------------------------|
D|-----9---9-----9---9-----6---6-----7---------| x4
A|---7---------6---------4---------------------|
D|---------------------------------7---7-------|

  Guitar 1:                                     
e|---------------------------------------------|
B|---------------------------------------------|
G|---------------------------------------------|
D|----0-2-2-----0-2-7-----0-2-2-----0-2-7------| x2
A|----0-2-2-----0-2-7-----0-2-2-----0-2-7------|
D|----0-2-2-----0-2-7-----0-2-2-----0-2-7------|
  (drum fill plays first half of the repeat)

  Guitar 1:                                     
e|---------------------------------------------|
B|---------------------------------------------|
G|---------------------------------------------|
D|----0-2-2-----0-2-------0-2-------0-2-7------| 
A|----0-2-2-----0-2-------0-2-------0-2-7------|
D|----0-2-2-----0-2-------0-2-------0-2-7------|

  Guitar 1:                                     
e|---------------------------------------------|
B|---------------------------------------------|
G|---------------------------------------------|
D|----0-2-2-----0-2-7--------------------------| 
A|----0-2-2-----0-2-7--------------------------|
D|----0-2-2-----0-2-7--------------------------|

"Detective said my mom should have had an abortion..."

  Guitar 1:                                     
e|---------------------------------------------|
B|---------------------------------------------|
G|---------------------------------------------|
D|---00000000000000000000000000000000----------| 
A|---00000000000000000000000000000000----------|
D|---00000000000000000000000000000000----------|
  pm ........................

  Ending:

  Guitar 1:
e|---------------|
B|---------------|
G|---------------|
D|--22---22------|
A|--22---22------|
D|--22---22------|



Song Order:

Intro
Verse
Chorus
Intro
Verse
Chorus
Bridge
Chorus x2
Intro
Ending

In other words standard punk song structure :)

Hope you find this "definitive" version helpful, you won't
find a more accurate tab.


************************************

| /   slide up
| \   slide down
| h   hammer-on
| p   pull-off
| ~   vibrato
| +   harmonic
| x   Mute note
| b   Bend
| pb  Pre-bend
| br  Bend release
| pbr Pre-bend release
| brb Bend release bend

************************************
Tap to rate this tab
# A B C D E F G H I J K L M N O P Q R S T U V W X Y Z