Song name
# A B C D E F G H I J K L M N O P Q R S T U V W X Y Z

Sum 41 - What I Believe tab

Intro pt. 1

Guitar 1
|------------------|
|------------------|
|11-11--1111111111-|  x6 then play the part below once.
|11-11--1111111111-|
|-9--9---9-9-9-9-9-|
|------------------|

Guitar 2 (starts playing after guitar one plays the above part twice)
|------------------------------------------------|
|------------------------------------------------|
|-88888888--99999999--1010101010101010--99999999-|  x2
|-88888888--99999999--1010101010101010--99999999-|
|-66666666--77777777---8-8-8-8-8-8-8-8--77777777-|
|------------------------------------------------|

Intro pt. 2

Guitar 1
|----------------------------------------|
|----------------------------------------|
|----------------------------------------|
|-44444444--66666666--44444444--88888888-|   x2 (on the final one let the 
|-44444444--66666666--44444444--66666666-|        last one ring out)
|-22222222--44444444--22222222--66666666-|

Guitar 2
|----------------------------------------------------------|
|-0--4-0-7-0-5-4--0--4-0-7-0-5-4--0--4-0-7-5-4-0-4-5-0-4-5-|
|----------------------------------------------------------|
|----------------------------------------------------------|
|----------------------------------------------------------|
|----------------------------------------------------------|

|----------------------------------------------------------|
|-0--4-0-7-0-5-4--0--4-0-7-0-5-4--0--4-0-7-5-4-5-4-2-0-----|
|------------------------------------------------------3-4~|
|----------------------------------------------------------|
|----------------------------------------------------------|
|----------------------------------------------------------|

Verse

Both Guitars
|----------------------------------------|
|----------------------------------------|
|----------------------------------------|
|-44444444--66666666--44444444--88888888-|   
|-44444444--66666666--44444444--66666666-|
|-22222222--44444444--22222222--66666666-|

|------------------------2--------|
|------------------------2--------|
|---------------------------------|
|-44444444--66666666--4-----------|   
|-44444444--66666666--4-----------|
|-22222222--44444444--2-----------|

|-------------|
|-------------|
|-4--4--44444-|
|-4--4--44444-| x2
|-2--4--22222-|
|-------------|

|-----------------------------|
|-----------------------------|
|--------222222---------------|
|-444444-222222-444444-666666-|
|-444444-000000-444444-666666-|
|-222222--------222222-444444-|

|-------------------------|
|-------------------------|
|-----------222222--------|
|-44444444--222222-444444-|
|-44444444--000000-444444-|
|-22222222---------222222-|

Guitar 1
|-----------------------------|
|-----------------------------|
|--------222222---------------|
|-444444-222222-444444-666666-|  x2
|-444444-000000-444444-666666-|
|-222222--------222222-444444-|

Guitar 2
|---------------------|
|---------------------|
|-22-11-22-11-|
|---------------------|  x2
|---------------------|
|---------------------|

Play Intro pt. 2 again

|-----------------|
|-----------------|
|-8~~~9~~~7~~~8~~~|
|-6~~~7~~~7~~~8~~~|
|-6~~~7~~~5~~~6~~~|

The Rest of the song is pretty much the same just with some grace notes.
its not hard to figure it out.
this is my first tab. so bear with me


Tap to rate this tab
 
# A B C D E F G H I J K L M N O P Q R S T U V W X Y Z