Song name
# A B C D E F G H I J K L M N O P Q R S T U V W X Y Z

Sum 41 - Theres No Solution tab

tuning is Eb [half step down] and i first tabbed Dave, Deryck is after Dave's tab anyway 
easy song though a bit hard to get the right chords... and here it is !:

 __________
|          |
|   Dave   |
|__________|

INTRO, VERSE AND OUTRO [light distortion]
eb|-7-----7-----7-----7--7-8--||
Bb|----5-----5-----5----------||
Gb|---------------------------||
Db|---------------------------|| play several times until pre-verse
Ab|---------------------------||
Eb|---------------------------||

PRE-VERSE: [two guitars can be heard here i'll tab both] [heavy distorion]

eb|--------------------------------------------------------------------------------||
Bb|-12--12-12-12-13-12--12-12-12-13-12-12-12-10-10-10------------------------------||
Gb|---------------------------------------------------12-12-12-12-12-11-11-11-9-9--||
Db|--------------------------------------------------------------------------------||
Ab|--------------------------------------------------------------------------------||
Eb|--------------------------------------------------------------------------------||
  |                                                                                ||
  |                                                                                ||
eb|--------------------------------------------------------------------------------||
Bb|--------------------------------------------------------------------------------||
Gb|-12--12-12-12-14-11--11-11-11-12-9--9--9--9--9--9--9--9--9--9--9--9--9--9--9--9-||
Db|--------------------------------------------------------------------------------||
Ab|-10--10-10-10-12--9---9--9--9-10-7--7--7--7--7--7--7--7--7--7--7--7--7--7--7--7-||
Eb|--------------------------------------------------------------------------------||

eb|--------------------------------------------------------------------------------||
Bb|-12--12-12-12-13-12--12-12-12-13-12-12-12-12-12-12-12-12-12-12-12-12-12-12-12-12||
Gb|--------------------------------------------------------------------------------||
Db|--------------------------------------------------------------------------------||
Ab|--------------------------------------------------------------------------------||
Eb|--------------------------------------------------------------------------------||
  |                                                                                ||
  |                                                                                ||
eb|--------------------------------------------------------------------------------||
Bb|--------------------------------------------------------------------------------||
Gb|-12--12-12-12-14-11--11-11-11-12-9--9--9--9--9--9--9--9--9--9--9--9--9--9--9--9-||
Db|--------------------------------------------------------------------------------||
Ab|-10--10-10-10-12--9---9--9--9-10-7--7--7--7--7--7--7--7--7--7--7--7--7--7--7--7-||
Eb|--------------------------------------------------------------------------------||


CHORUS [heavy distortion]
eb|-----------------------------------||
Bb|-----------------------------------||
Gb|-----------------------------------|| [find the struming it's easy]
Db|---------7---5-----------7---4--7--||
Ab|-2---5---5---3---2---5---5---2--5--||
Eb|-0---3-----------0---3-------------||


BRIDGE [heavy distortion]
eb|-----------------------------------||
Bb|-----------------------------------||
Gb|-----------------------------------||
Db|-5---7------------2--5---7---4---7-||
Ab|-3---5--/2--4--5--0--3---5---2---5-||
Eb|--------/0--2--3-------------------||

OUTRO

--------------------------------------------------------------------------------------------

 __________
|          |
|  Deryck  |
|__________|


INTRO  [light distortion]
eb|--------------------||
Bb|--------------------||
Gb|--------------------||
Db|------5~------------||
Ab|-2~---3~---5~---5~--||
Eb|-0~--------3~---2~--||

VERSES [light distortion]
eb|-----------------------------------------------------------------||
Bb|-----------------------------------------------------------------||
Gb|-----------------5--5--5-5-5---5---------------------------------||
Db|-----------------5--5--5-5-5---5-5--5--5-5-5---5-----------------|| x2
Ab|-2--2--2-2-2---2-3--3--3-3-3---3-5--5--5-5-5---5-5--5--5-5-5---5-||
Eb|-0--0--0-0-0---0-----------------3--3--3-3-3---3-2--2--2-2-2---2-||

PRE-CHORUS [light distortion]
eb|-----------------------------------------------------------------||
Bb|-----------------------------------------------------------------||
Gb|-5--5--5-5-5---5-7--7--7-7-7---7-9-9-9-9-9-9-9-9-9-9-9-9-9-9-9-9-||
Db|-5--5--5-5-5---5-7--7--7-7-7---7-9-9-9-9-9-9-9-9-9-9-9-9-9-9-9-9-|| x2
Ab|-3--3--3-3-3---3-5--5--5-5-5---5-7-7-7-7-7-7-7-7-7-7-7-7-7-7-7-7-||
Eb|-----------------------------------------------------------------||

CHORUS [heavy distortion]
eb|-----------------------------------||
Bb|-----------------------------------||
Gb|-----------------------------------||
Db|---------7---5-----------7---4--7--||
Ab|-2---5---5---3---2---5---5---2--5--||
Eb|-0---3-----------0---3-------------||


BRIDGE [heavy distortion]
eb|-----------------------------------||
Bb|-----------------------------------||
Gb|-----------------------------------||
Db|-5---7------------2--5---7---4---7-||
Ab|-3---5--/2--4--5--0--3---5---2---5-||
Eb|--------/0--2--3-------------------||

OUTRO [heavy distortion]
eb|-----------------------------------------------------------------||
Bb|-----------------------------------------------------------------||
Gb|-----------------------------------------------------------------||
Db|-----------------5--5--5-5-5---5-----------------7--7--7-7-7---7-||
Ab|-2--2--2-2-2---2-3--3--3-3-3---3-5--5--5-5-5---5-5--5--5-5-5---5-||
Eb|-0--0--0-0-0---0-----------------3--3--3-3-3---3-----------------||

eb|------------------------------------------------------------------||
Bb|------------------------------------------------------------------||
Gb|------------------------------------------------------------------||
Db|---------------------------------7--7--7-7-7---7-4--4--7-7-7-7----||
Ab|-2--2--2-2-2---2-5--5--5-5-5---5-5--5--5-5-5---5-2--2--5-5-5-5-2~-||
Eb|-0--0--0-0-0---0-3--3--3-3-3---3-------------------------------0~-||

way to play it:
INTRO
VERSE
PRE-CHORUS
CHORUS
INTRO
VERSE
PRE-CHORUS
CHORUS
BRIDGE
CHORUS
OUTRO

questions and/or hate mail at: oskr__mdo14@hotmail.com
Tap to rate this tab
# A B C D E F G H I J K L M N O P Q R S T U V W X Y Z