Song name
# A B C D E F G H I J K L M N O P Q R S T U V W X Y Z

Sum 41 - Count Your Last Blessings tab

-----------------------------------------------------------------
COUNT YOUR LAST BLESSINGS - Sum 41
-----------------------------------------------------------------
Tabbed by: Sid Vicouis

Tuning:Standard

Intro

Guitar 1
e|-----------------------------------------------------------------|
B|-----------------------------------------------------------------|
G|-4~-------------2~-----------------------------------------------|
D|-4~-------------2~-------------2~---------------5~---------------|
A|-2~-------------0~-------------2~---------------5~---------------|
E|-------------------------------0~---------------3~---------------|

Verse

Guitar 1
e|-----------------------------------------------------------------|
B|-----------------------------------------------------------------|
G|-4~-------------2~-----------------------------------------------|
D|-4~-------------2~-------------2~---------------5~---------------| x2
A|-2~-------------0~-------------2~---------------5~---------------|
E|-------------------------------0~---------------3~---------------|

Guitar 2

e|-----------------------------------------------------------------|
B|-----------------------------------------------------------------|
G|-----------------------------------------------------------------|
D|-4-4-4-4-4-4-4-4-2-2-2-2-2-2-2-2---------------------------------| x2
A|-2-2-2-2-2-2-2-2-0-0-0-0-0-0-0-0-2-2-2-2-2-2-2-2-5-5-5-5-5-5-5-5-|
E|---------------------------------0-0-0-0-0-0-0-0-3-3-3-3-3-3-3-3-|
   . . . . . . . . . . . . . . . . . . . . . . . . . . . . . . . .

e|-------------------|
B|-------------------|
G|-44-44-------------|
D|-44----22445544224-|*Gradually release palm mute
A|-22----------------|
E|-------------------|
   .. .. ...

Chorus

Guitar 1 & 2

e|-------------------------------------------------------------------------|
B|-------------------------------------------------------------------------|
G|-4-4-4-4-4-4-4-4-7-7-7-7-7-7-7-7-----------------11-11-11-11-11-11-11-11-|
D|-4-4-4-4-4-4-4-4-7-7-7-7-7-7-7-7-5-5-5-5-5-5-5-5-11-11-11-11-11-11-11-11-|x2
A|-2-2-2-2-2-2-2-2-5-5-5-5-5-5-5-5-5-5-5-5-5-5-5-5-9--9--9--9--9--9--9--9--|
E|---------------------------------3-3-3-3-3-3-3-3-------------------------|

Guitar 1

e|-------------------------------------|
B|-------------------------------------|
G|-4-4-4-4-4-4-------------------------|
D|-4-4-4-4-4-4-4-4-4-4-4-4-5-5-5-5-5-5-|
A|-2-2-2-2-2-2-4-4-4-4-4-4-5-5-5-5-5-5-|
E|-------------2-2-2-2-2-2-3-3-3-3-3-3-|

Guitar 2

e|-7-------7-------------------|
B|---7---7---8---8-10--7-7h8p7-|
G|-----7-------9---12----------|
D|-----------------------------|
A|-----------------------------|
E|-----------------------------|

Repeat Verse x3 instead of x2

Repeat Chorus

Bridge

Guitar 1

e|-----------------------------------------------------------------------|
B|-----------------------------------------------------------------------|
G|-4-4-4-4-4-4-4-4-7-7-7-7-7-7-7-11-11-11-11-11-11-11-11-7-7-7-7-7-7-7-7-|
D|-x-x-x-x-x-x-x-x-x-x-x-x-x-x-x-x--x--x--x--x--x--x--x--x-x-x-x-x-x-x-x-| x3
A|-2-2-2-2-2-2-2-2-5-5-5-5-5-5-5-9--9--9--9--9--9--9--9--5-5-5-5-5-5-5-5-|
E|-----------------------------------------------------------------------|

Guitar 2


e|----14~12~14~---15~14~12~---12~14~12~---14~12~14~-------|
B|-12~---------12~---------15~---------15~---------15~14~-|
G|--------------------------------------------------------|
D|--------------------------------------------------------| x3
A|--------------------------------------------------------|
E|--------------------------------------------------------|

Guitar 1

e|----------------------------------|
B|----------------------------------|
G|----------------------------------|
D|-9-9---9-9-------------9-9---9-9\-|
A|-9-9---9-9-------------9-9---9-9\-|
E|-7-7---7-7-------------7-7---7-7\-|

Guitar 2

e|----------------------------------|
B|----------------------------------|
G|----------------------------------|
D|----------------------------------|
A|-x-x-x-x-x-x-x-x-x-x-x-x-x-x-x-x\-|
E|-7-7-7-7-7-7-7-7-7-7-7-7-7-7-7-7\-|

Outro

Guitar 1 & 2

e|-------------------------------------------------------------------------|
B|-------------------------------------------------------------------------|
G|-4-4-4-4-4-4-4-4-7-7-7-7-7-7-7-7-----------------11-11-11-11-11-11-11-11-|
D|-4-4-4-4-4-4-4-4-7-7-7-7-7-7-7-7-5-5-5-5-5-5-5-5-11-11-11-11-11-11-11-11-|x4
A|-2-2-2-2-2-2-2-2-5-5-5-5-5-5-5-5-5-5-5-5-5-5-5-5-9--9--9--9--9--9--9--9--|
E|---------------------------------3-3-3-3-3-3-3-3-------------------------|


Guitar 1

e|-------------------------------------|
B|-------------------------------------|
G|-4-4-4-4-4-4-------------------------|
D|-4-4-4-4-4-4-4-4-4-4-4-4-5-5-5-5-5-5-|
A|-2-2-2-2-2-2-4-4-4-4-4-4-5-5-5-5-5-5-|
E|-------------2-2-2-2-2-2-3-3-3-3-3-3-|

Guitar 2

e|-7-------7-------7----------|
B|---7---7---8---8-8b-7-7h8p7-|
G|-----7-------9--------------|
D|----------------------------|
A|----------------------------|
E|----------------------------|

Guitar 1

e|----------------------------------|
B|----------------------------------|
G|----------------------------------|
D|-9-9---9-9-------------9-9---9-9\-|
A|-9-9---9-9-------------9-9---9-9\-|
E|-7-7---7-7-------------7-7---7-7\-|

Guitar 2

e|----------------------------------|
B|----------------------------------|
G|----------------------------------|
D|----------------------------------|
A|-x-x-x-x-x-x-x-x-x-x-x-x-x-x-x-x\-|
E|-7-7-7-7-7-7-7-7-7-7-7-7-7-7-7-7\-|

Repeat Intro x2 and fade away

| \  slide down
| h  hammer-on
| p  pull-off
| ~  vibrato
| x  dead note
Tap to rate this tab
# A B C D E F G H I J K L M N O P Q R S T U V W X Y Z