Song name
# A B C D E F G H I J K L M N O P Q R S T U V W X Y Z

Sum 41 - No Apologies tab

Highlighted       Show chord diagrams
Sum 41
No Apologies
Underclass Hero
2007 Island Records
Submitted by: paramore_fans@yahoo.com

Key: D

Tuning: Drop D


Chords used: for Drop D
D -    000xxx or 0577xx
A -    777xxx or x022xx
Bm -   999xxx or x244xx
G -    555xxx
A/C# - x476xx
F#m -  444xxx


Chords used: for Standard EADGBe
D -    xx0232
A -    x02220
Bm -   x24432
G -    320033
A/C# - x476xx or x4222x
F#m -  244222


Intro: D---, D-A-G x2


Verse 1:
D                 A
  I've heard it before
                    Bm
I'm straight out of line
             G
The image of malice
              D
With one evil mind
              A
I've got no excuse
           Bm
It's my alibi
            G
A victim of fashion
        A
Dressed to do or die


Refrain:
Bm           G
  Don't worry about me
D             A
  I'm not your misery
Bm        G
  A reject no respect
 D                 A
(I don't I don't I don't)


Chorus:
I don't want to
D
be a conclusion
A
Victim of confusion
Bm
  And I'll stay my own
G
place right here in nowhere
   D
So here's my resignation
A
From the desperation
Bm
I'm the saint of hopeless
  G        A
I make no apologies


Interlude: D-A-G x2


Verse 2:
D                A
  Well this is a call
                Bm
Throughout and across
             G
The underdog nation
                  D
The hopeless and lost
                    A
Cause we're not the ones
                 Bm
To walk with the dead
             G
Disciples of no one
   A
By no one we're led


(Repeat Refrain and Chorus)


Bridge:
D
  Na na na
A/C#
  Na na na
Bm
  Na na na na
   G        A
(I make no apologies)
(Repeat)


Deryck's Guitar Solo:
        D              A             Bm            G
e|-------------|---------------|--------0----|-2----0----|
B|-------------|---------------|---3---------|---------3-|
G|-------------|---------------|-2----2----2-|----2------|
D|-0--0--5-4-0-|---------------|-------------|-----------|
A|-------------|-0--0-0-0-2--4-|-------------|-----------|
D|-------------|---------------|-------------|-----------|


        D              A                    G                D
e|-------------|---------------|---2----3----5----3----2h3-|---|
B|-------------|---------------|-3----3----3----3----3-----|---|
G|-------------|---------------|---------------------------|---|
D|-0--0--5-4-0-|---------------|---------------------------|-0-|
A|-------------|-0--0-0-0-2--4-|---------------------------|-0-|
D|-------------|---------------|---------------------------|-0-|


D         G A
  na na na
(Repeat x3)


D---, D--A--G


(Repeat Chorus thrice)


Outro: D
Tap to rate this tab
# A B C D E F G H I J K L M N O P Q R S T U V W X Y Z