Song name
# A B C D E F G H I J K L M N O P Q R S T U V W X Y Z

Sum 41 - Jester tab

Help us improve GuitareTab! Take a short survey!
The Jester
Sum 41

Standard tuning

///////////////-Pick slide
......-Palm mute
R-rest
h-Hammer On
p-Pull Off



The intro and verses are played in 3/4 time


Intro (with powerchords and clean tone, Deryck uses some kind of effect to make it sound like full chords) 

E----------|----------|----------|----------|
B----------|----------|----------|----------|
G--4444-4--|--4444-4--|--4444-4--|--4444-4--|
D--4444-4--|--4444-4--|--4444-4--|--4444-4--|
A--2222-2--|--2222-2--|--2222-2--|--2222-2--|
E----------|----------|----------|----------|



Verse (Clean)

E----------|----------|----------|----------|
B----------|----------|----------|----------|
G--4444-4--|--4444-4--|----------|----------|
D--4444-4--|--4444-4--|--4444-4--|--4444-4--|
A--2222-2--|--2222-2--|--4444-4--|--4444-4--|
E----------|----------|--2222-2--|--2222-2--|

E----------|----------|----------|----------|
B----------|----------|----------|----------|
G----------|----------|--7777-7--|--6666-6--|
D--5555-5--|--5555-5--|--7777-7--|--6666-6--|
A--5555-5--|--5555-5--|--5555-5--|--4444-4--|
E--3333-3--|--3333-3--|----------|----------|


E----------|----------|----------|----------|
B----------|----------|----------|----------|
G--4444-4--|--4444-4--|----------|----------|
D--4444-4--|--4444-4--|--2222-2--|--2222-2--|
A--2222-2--|--2222-2--|--2222-2--|--2222-2--|
E----------|----------|--0000-0--|--0000-0--|

                                   Switch to 4/4 time here
E----------|----------|----------|------------|
G----------|----------|----------|------------|
B----------|----------|--4444-4--|------------|
D--4444-4--|--4444-4--|--4444-4--|------------|
A--4444-4--|--4444-4--|--2222-2--|------------|
E--2222-2--|--2222-2--|----------|--////////--|


Chorus X2

E------------|------------|------------|------------|
B------------|------------|------------|------------|
G--44444444--|--44444444--|------------|------------|
D--44444444--|--44444444--|--55555555--|--55555555--|
A--22222222--|--22222222--|--55555555--|--55555555--|
E------------|------------|--33333333--|--33333333--|

E------------|------------|------------|------------|
B------------|------------|------------|------------|
G--77777777--|--77777777--|------------|------------|
D--77777777--|--77777777--|--44444444--|--R-R-R-R---|
A--55555555--|--55555555--|--44444444--|--R-R-R-R---|
E------------|------------|--22222222--|--R-R-R-R---|


Post Chorus (bac to 3/4 time)

E----------|----------|----------|----------|
B----------|----------|----------|----------|
G--4444-4--|--4444-4--|--4444-4--|--4444-4--|
D--4444-4--|--4444-4--|--4444-4--|--4444-4--|
A--2222-2--|--2222-2--|--2222-2--|--2222-2--|
E----------|----------|----------|----------|


Verse (Distorted) 

E-----------|-----------|-----------|-----------|
B-----------|-----------|-----------|-----------|
G-----------|-----------|-----------|-----------|
D--4--4--4--|--4--4--4--|-----------|-----------|
A--2--2--2--|--2--2--2--|--4--4--4--|--4--4--4--|
E-----------|-----------|--2--2--2--|--2--2--2--|
   .  .  .     .  .  .     .  .  .     .  .  .

E-----------|-----------|-----------|-----------|
B-----------|-----------|-----------|-----------|
G-----------|-----------|-----------|-----------|
D-----------|-----------|--7--7--7--|--6--6--6--|
A--5--5--5--|--5--5--5--|--5--5--5--|--4--4--4--|
E--3--3--3--|--3--3--3--|-----------|-----------|
   .  .  .     .  .  .     .  .  .     .  .  .

E-----------|-----------|-----------|-----------|
B-----------|-----------|-----------|-----------|
G-----------|-----------|-----------|-----------|
D--4--4--4--|--4--4--4--|-----------|-----------|
A--2--2--2--|--2--2--2--|--2--2--2--|--2--2--2--|
E-----------|-----------|--0--0--0--|--0--0--0--|
   .  .  .     .  .  .     .  .  .     .  .  .

                                      Switch to 4/4 time here
E-----------|-----------|-----------|------------|
B-----------|-----------|-----------|------------|
G-----------|-----------|-----------|------------|
D-----------|-----------|--4--4--4--|------------|
A--4--4--4--|--4--4--4--|--2--2--2--|------------|
E--2--2--2--|--2--2--2--|-----------|--////////--|
   .  .  .     .  .  .     .  .  .     


Chorus X2

E------------|------------|------------|------------|
B------------|------------|------------|------------|
G--44444444--|--44444444--|------------|------------|
D--44444444--|--44444444--|--55555555--|--55555555--|
A--22222222--|--22222222--|--55555555--|--55555555--|
E------------|------------|--33333333--|--33333333--|

E------------|------------|------------|------------|
B------------|------------|------------|------------|
G--77777777--|--77777777--|------------|------------|
D--77777777--|--77777777--|--44444444--|--44444444--|
A--55555555--|--55555555--|--44444444--|--44444444--|
E------------|------------|--22222222--|--22222222--|


Interlude X2

E------------|------------|------------|------------|
B------------|------------|------------|------------|
G--44444444--|------------|--77777777--|------------|
D--44444444--|--55555555--|--77777777--|--44444444--|
A--22222222--|--55555555--|--55555555--|--44444444--|
E------------|--33333333--|------------|--22222222--|

Guitar Break/Solo X2

E------------|------------|------------|-------------------|
B------------|------------|------------|-------------------|
G------------|------------|------------|-------------------|
D---------5--|--5-5555-0--|--0-000000--|--4h5p4h5p4h5p4h5--|
A--2-2222----|------------|------------|-------------------|
E------------|------------|------------|-------------------|


Bridge

E-------------|-----------|------------|------------|
B-------------|-----------|------------|------------|
G--44--R-R-R--|--R-R-R-R--|------------|------------|
D--44--R-R-R--|--R-R-R-R--|--55555555--|--44444444--|
A--22--R-R-R--|--R-R-R-R--|--55555555--|--44444444--|
E-------------|-----------|--33333333--|--22222222--|

E------------|------------|------------|------------|
B------------|------------|------------|------------|
G--44-R-R-R--|--44-R-R-R--|------------|------------|
D--44-R-R-R--|--44-R-R-R--|--55555555--|--44444444--|
A--22-R-R-R--|--22-R-R-R--|--55555555--|--44444444--|
E------------|------------|--33333333--|--22222222--|


Chorus X2

E------------|------------|------------|------------|
B------------|------------|------------|------------|
G--44444444--|--44444444--|------------|------------|
D--44444444--|--44444444--|--55555555--|--55555555--|
A--22222222--|--22222222--|--55555555--|--55555555--|
E------------|------------|--33333333--|--33333333--|

E------------|------------|------------|------------|
B------------|------------|------------|------------|
G--77777777--|--77777777--|------------|------------|
D--77777777--|--77777777--|--44444444--|--44444444--|
A--55555555--|--55555555--|--44444444--|--44444444--|
E------------|------------|--22222222--|--22222222--|


Outro

E------------|------------|------------|------------|
B------------|------------|------------|------------|
G--4444---7--|--4444---7--|--4444---7--|------------|
D--4444-5-7--|--4444-5-7--|--4444-5-7--|--2~~~~~~~--|
A--2222-5-5--|--2222-5-5--|--2222-5-5--|--2~~~~~~~--|
E-------3----|-------3----|-------3----|--0~~~~~~~--|






Related for Jester tab