Song name
# A B C D E F G H I J K L M N O P Q R S T U V W X Y Z

Summer Heart - I Wanted You To Stay tab

Song: I Wanted You To Stay
Album: About A Feeling
Summer Heart
Tabbed by Joseph Michaels

Standard, 

Chords
----------------
Emaj11     xx2444
Bmaj7      x2x342
----------------

e|----4---|-4------|----2---|-2---/--|
B|----4---|-4------|----4---|-4---/--|
G|----4---|-4------|----3---|-3---/--|
D|-2------|-2------|--------|--------|
A|--------|--------|-2------|-2---/--|
E|--------|--------|--------|--------|

e|----4---|-4------|--2-----|--------|
B|----4---|-4------|----4---|--------|
G|----4---|-4------|--------|-3------|
D|----2---|-2------|--------|--------|
A|--------|--------|--2-----|--------|
E|--------|--------|--------|--------|

Finger pattern:
Pluck the lowest note once, then top three, then all.
Play throughout entire song.

Optional*
Can also capo 2nd fret and play the notes on G, B, and e to make it a bit easier.

Lyrics:

I've got your heart
My mind holds tight
I know I'll run whenever you're hot
Come on
Go on
I'll start
I know 
A chance
I smile all day

I wanted you to stay on the other side

I've got your heart
my hand holds tight
I know I'll run whenever you're hot
Come on
Go on
I'll start
I know 
A chance
I smile all day

I wanted you to stay on the other side

Record Label:   http://www.sommarhjarta.se/
Artist Website: http://www.summer-heart.com/
Tap to rate this tab
# A B C D E F G H I J K L M N O P Q R S T U V W X Y Z