Song name
# A B C D E F G H I J K L M N O P Q R S T U V W X Y Z

Summerbirds In The Cellar - Trains tab

A B-side from "With the Hands of the Hunter It All Becomes Dead".

**Tuning - E A Db G B E**


 INTRO

    Q   E E E E Q    Q   E E E E Q    Q   E E E E Q    E E E E E E Q 
e |----------------|----------------|----------------|----------------|
B |----------------|----------------|----------------|----------------|
G |-4---------4----|-2---------2----|-0---------0----|-0h2-------2----| 
Db|-------1--------|-------1--------|-------1--------|-------1--------| 2x
A |----------------|----------------|----------------|----------------|
E |-3---3---3---3--|-3---3---3---3--|-3---3---3---3--|-3---3---3---3--|


 VERSE 1

    Q   E E E E Q    Q   E E E E Q    Q   E E E E Q    E E E E E E Q 
e |----------------|----------------|----------------|----------------|
B |----------------|----------------|----------------|----------------|
G |-4---------4----|-2---------2----|-0---------0----|-0h2-------2----| 
Db|-------1--------|-------1--------|-------1--------|-------1--------| 
A |----------------|----------------|----------------|----------------|
E |-3---3---3---3--|-3---3---3---3--|-3---3---3---3--|-3---3---3---3--|

   Q   E E E E Q    Q   E E E E Q    Q   E E E E Q    E E E E E E Q 
e |----------------|----------------|----------------|----------------|   
B |-4---------4----|-3---------3----|-1---------1----|-1h3-------3----|
G |-------0--------|-------0--------|-------0--------| ------0--------|
Db|----------------|----------------|----------------|----------------| 
A |-3---3---3---3--|-3---3---3---3--|-3---3---3---3--|-3---3---3---3--|
E |----------------|----------------|----------------|----------------|


 PRE-CHORUS 1

    Q   E E E E Q    Q   E E E E Q    Q   E E E E Q    Q   Q   H
e |----------------|----------------|----------------|----------------|
B |----------------|----------------|----------------|-----1---3------|
G |-4---------4----|-4---------4----|-4---------4----|-4--------------|
Db|-------1--------|-------1--------|-------1--------|----------------|
A |----------------|----------------|----------------|-----0---2------|
E |-3---3---3---3--|-3---3---3---3--|-3---3---3---3--|-3--------------|


 CHORUS 1

    Q   E E E E Q    Q   Q E E E Q    Q   E E E E Q    Q   E E E E Q 
e |-2---------2----|-3---------3----|-2---------2----|-3---------3----|
B |-------4--------|-------3--------|-------4--------|-------3--------|
G |----------------|----------------|----------------|----------------|
Db|----------------|----------------|----------------|----------------|
A |-2---2---2---2--|-3---3---3---3--|-2---2---2---2--|-3---3---3---3--|
E |----------------|----------------|----------------|----------------|

    Q   E E Q   Q    E E Q   Q   Q    Q   E E Q   Q    E E Q   Q   Q
e |-7-----2-----3--|---5-----3------|-0-----2-----3--|---0-----3------|
B |----------------|----------------|----------------|----------------|
G |----------------|----------------|----------------|----------------|
Db|-0---0---0---0--|-0---0---0---0--|----------------|----------------|
A |----------------|----------------|-3---3---3---3--|-3---3---3---3--|
E |----------------|----------------|----------------|----------------|

    Q   E E Q   Q    E E Q   Q   Q    Q   E E Q   Q    E E Q   H
e |-7-----2-----3--|---5-----3------|-0-----2-----3--|----------------|
B |----------------|----------------|----------------|---3------------|
G |----------------|----------------|----------------|----------------|
Db|-0---0---0---0--|-0---0---0---0--|----------------|---------1------|
A |----------------|----------------|-3---3---3---3--|-3---3----------|
E |----------------|----------------|----------------|----------------| 


 PRE-VERSE (Same as INTRO)


 VERSE 2 (Same as VERSE 1 except for play this on the last repeat)

    Q   E E E E Q    Q   E E E E Q    Q   E E E E Q    Q   E E E E Q 
e |----------------|----------------|----------------|----------------|
B |----------------|----------------|----------------|----------------|
G |-4---------4----|-2---------2----|-0---------0----|----------------| 
Db|-------1--------|-------1--------|-------1--------|-5-----3---1----| 
A |----------------|----------------|----------------|----------------|
E |-3---3---3---3--|-3---3---3---3--|-3---3---3---3--|-3---3---3---3--|

    Q   E E E E Q    Q   E E E E Q    Q   E E E E Q    E E E E E E Q 
e |----------------|----------------|----------------|----------------|
B |-4---------4----|-3---------3----|-1---------1----|-1h3-------3----|
G |-------0--------|-------0--------|-------0--------| ------0--------|
Db|----------------|----------------|----------------|----------------| 
A |-3---3---3---3--|-3---3---3---3--|-3---3---3---3--|-3---3---3---3--|
E |----------------|----------------|----------------|----------------|


 PRE-CHORUS 2 (Same as PRE-CHORUS 1)


 CHORUS 2 (Same as CHORUS 1 except for repeat last 8 bars)

  
 OUTRO

    Q   E E E E Q    Q   E E E E Q    Q   E E E E Q    E E E E E E Q 
e |----------------|----------------|----------------|----------------|
B |----------------|----------------|----------------|----------------|
G |-4---------4----|-2---------2----|-0---------0----|-0h2-------2----| 
Db|-------1--------|-------1--------|-------1--------|-------1--------| 
A |----------------|----------------|----------------|----------------|
E |-3---3---3---3--|-3---3---3---3--|-3---3---3---3--|-3---3---3---3--|

    Q   E E E E Q    Q   E E E E Q    W                
e |----------------|----------------|----------------|
B |----------------|----------------|----------------|
G |-4---------4----|-2---------2----|-0--------------| And you're done!
Db|-------1--------|-------1--------|----------------| 
A |----------------|----------------|----------------|
E |-3---3---3---3--|-3---3---3---3--|-3--------------|


 LYRICS

Patient preacher sings
A song that is moving
But I don't feel nothing
You remind me of leaving

Stand for anything
It can keep you from waking

We're waiting to be
Audible machines
I will cross the night
On sorry tired trains.

An evil dirty mind
That is changed in a moment
What did we leave behind
That we never noticed
Deeper waters rise
And surf tides into corners
 
We're waiting to be
Audible machines
I will cross the night
On sorry tired trains
Compromise it all
Until only sleep remains.
Tap to rate this tab
# A B C D E F G H I J K L M N O P Q R S T U V W X Y Z