Song name
# A B C D E F G H I J K L M N O P Q R S T U V W X Y Z

Summerbirds In The Cellar - Lonely Sleeping Giant tab

lonely sleeping giant - summerbirds in the cellar

intro   http://www.summerbirds.com/
e------------------------------------------------------------|
b------------------------------------------------------------|
g------------------------------------------------------------|
d-9-9--8-8--6-6--8-8-8-8-8-8-8-8-----------------------------|
a------------------------------------------------------------|
e------------------------------------------------------------|

e------------------------------------------------------------|
b------------------------------------------------------------|
g------------------------------------------------------------|
d-9-9--8-8--6-6--8-8-8-8-------------------------------------|
a-------------------------10-10-10-10------------------------|
e------------------------------------------------------------|

e------------------------------------------------------------|
b------------------------------------------------------------|
g------------------------------------------------------------|
d-9-9--8-8--6-6--8-8-8-8-------------------------------------|
a-------------------------10-10-10-10-10-10--8-8-10-10-10-10-|
e------------------------------------------------------------|

e------------------------------------------------------------|
b------------------------------------------------------------|
g------------------------------------------------------------|
d------------------------------------------------------------|
a--8-8-10-10-10-10--8-8-10-----------------------------------|
e------------------------------------------------------------|
Tap to rate this tab
# A B C D E F G H I J K L M N O P Q R S T U V W X Y Z