Song name
# A B C D E F G H I J K L M N O P Q R S T U V W X Y Z

Summers End - Long Time Dead tab

Please keep in mind that most if not all of the notes played on the drop D string are 
muted!!!!

Intro: play this three times

e|------------------------------------------------------------------------------------------------------------|
b|------------------------------------------------------------------------------------------------------------|
g|------------------------------------------------------------------------------------------------------------|
d|------------------------------------------------------------------------------------------------------------|
a|-------8----7----7h8p7s5---------8----10----8h10p8s7---------10----8----8h10p8s7---------8----7----7h8p7s5--|
d|--0-0----0----0---------------0-0----0------0----------------8-8-----8----8----------------7-7----7----7----|

e|--------------------------------------------------------------------------------------------------------|
b|--------------------------------------------------------------------------------------------------------|
g|--------------------------------------------------------------------------------------------------------|
d|--------------------------------------------------------------------------------------------------------|
a|-------8----7----7h8p7s5-------8----10------8h10p8s7-------10----8----8h10p8s7---------8----7----8------|
d|--0-0----0----0-------------0-0-----0------0---------------8-8------8----8---------------7-7----7----7--|

End of intro: end intro (after playing three times) with this

e|----------------------------------------------------------------|
b|----------------------------------------------------------------|
g|----------------------------------------------------------------|
d|----------------------------------------------------------------|
a|-10-10-10-10-10-10-10-10----8--8--8--8--7--7--7--7--------------|
d|--8--8--8---8---8--8--8--8-----7--7--7--7--7--7--7--7-----------|

Verse: play this 2 1/2 times

e|-------------------------------------------------------------------------------------------------------------------|
b|-------------------------------------------------------------------------------------------------------------------|
g|-------------------------------------------------------------------------------------------------------------------|
d|--0----------------------------------------------------------------------------------------------------------------|
a|--0---------------------10-10-10-10--8-8-8-8--7-7-7-7--8-------8-----10----12------8h10p8--------8----10----8------|
d|--0--0-0-0-0-0-0-0-------------------------------------------------8--8------8------8-------------7-7----7------7--|

e|-----------------------------------------------------------------------------------------|
b|-----------------------------------------------------------------------------------------|
g|-----------------------------------------------------------------------------------------|
d|--0--------------------------------------------------------------------------------------|
a|--0----------------------10----8----7----8---8-----7-8-10-8-7-----10-------8-10-12-10-8--|
d|--0--0-0-0-0-0-0-0--------0----0----0------8--8-------------------10--10-----------------|

Riff after verse: play this four times

e|-----------------------------------------------------------------------------------------------|
b|-----------------------------------------------------------------------------------------------|
g|-----------------------------------------------------------------------------------------------|
d|-----------------------------------------------------------------------------------------------|
a|--------5----8---------------7----10----8---5-----7----7h8p7p5--------3-----5----5h6p5p3-------|
d|--0-0----0----0-0-0-000------0-----0------5--5----5---------------5---3--3----3-------------3--|

Riff after verse:  End with this ( after playing the riff after verse four times)

e|-----------------------------------------------------------|
b|-----------------------------------------------------------|
g|-----------------------------------------------------------|
d|-----------------------------------------------------------|
a|-------5----8----------------7----10----8--0---------------|
d|--0-0----0----0-0-0-000------0-----0-----0-----------------|
Tap to rate this tab
 
# A B C D E F G H I J K L M N O P Q R S T U V W X Y Z