Song name
# A B C D E F G H I J K L M N O P Q R S T U V W X Y Z

Summers End - Buried Near The Living Dead tab

Repeat twice:

E|--------------------------------------------------------------------|
B|--------------------------------------------------------------------|
G|--------------------------------------------------------------------|
D|--------------------------------------------------------------------|
A|----5~~---------8-----------10--8-----8--7----------8--7---7--8--10-|
D|------------s10-----10--8-----------7-------8~~--7-------8----------|

E|----------------------------------------------|
B|----------------------------------------------|
G|----------------------------------------------|
D|----------------------------------------------|
A|----0---0---0---0---0---0---0---0---0~~~~---0-|
D|----0---0---0---0---0---0---0---0---0~~~~---0-|
Repeat twice:

E|---------------------------------------------------------------|
B|---------------------------------------------------------------|
G|---------------------------------------------------------------|
D|------------------------------------5-----3-----5---3---2------|
A|----5-----5-----8---3---7---5s1-1-1---1-1---1-1---1---1---1--3-|
D|0-0---0-0---0-0---0---0---0------------------------------------|
-
E|-------------------------------------------------------------------------|
B|-------------------------------------------------------------------------|
G|-------------------------------------------------------------------------|
D|---------------------------------------5-----3-----5p3p0--3p2p0----------|
A|----5------5------8----3---7---5s1-1-1---1-1---1-1--------------5p3p0--1-|
D|0-0---0--0---0--0---0----0---0-------------------------------------------|

E|------------------------------------|
B|------------------------------------|
G|------------------------------------|
D|------------------------------------|
A|-0---0---0---0---0------5~~~---3~~~-|
D|-0---0---0---0---0------------------|

Repeat twice:

E|-----------------------------------------------------------------|
B|-----------------------------------------------------------------|
G|-----------------------------------------------------------------|
D|------------------------------------------3--------------2-------|
A|------5p0h5------8p7h8-------5p0h5--1-1-1---1-1-1--3-3-3---3-3-3-|
D|0-0-0------0-0-0-------0-0-0-------------------------------------|

Repeat twice: (also add light muted strumming in between chords)

E|----------------------------------------------------------------------|
B|----------------------------------------------------------------------|
G|----------------------------------------------------------------------|
D|10-10---10-10----8--8-----8-8-----0--0---0-0--3-----2----2-----3------|
A|-8--8----8--8----7--7-----7-7-----0--0---0-0----1-0--3-0---4-0---5--0-|
D|-8--8----8--8----7--7-----7-7-----0--0---0-0--------------------------|

E|------------------------------------------------------------------------|
B|------------------------------------------------------------------------|
G|------------------------------------------------------------------------|
D|10-10--10-10---12-12---12-12--------------------------------------------|
A|-8--8---8--8---10-10---10-10--0-0-0-0-0-0-0-0-0-0-0-0-0-0-0-0-0-0-0-0-0-|
D|-8--8---8--8---10-10---10-10--0-0-0-0-0-0-0-0-0-0-0-0-0-0-0-0-0-0-0-0-0-|

E|--------------------------------------------------------------------------|
B|--------------------------------------------------------------------------|
G|--------------------------------------------------------------------------|
D|3*------3*------------------------3*------3*------------------------------|
A|--------------------------------------------------------------2-3-0-0-0-0-|
D|--3-0-0---3-0-0-2-0-0-1-0-0-2-0-0---3-0-0---3-0-0-2-0-0-1-0-0-2-3-0-0-0-0-|
Tap to rate this tab
 
# A B C D E F G H I J K L M N O P Q R S T U V W X Y Z