Song name
# A B C D E F G H I J K L M N O P Q R S T U V W X Y Z

Summerswasted - Changing Sceneries tab

-------------------------------------------------------------------------------
			     CHANGING SCENERIES - Summers Wasted
-------------------------------------------------------------------------------
Music: http://www.facebook.com/SummersWasted

Tuning: Standard

Intro (Richie): 
e|-------------------|
B|-------------------|
G|-44-4444-22-1111---|
D|-44-2222-22-2222---|
A|-22-4444-00-2222---|
E|-------------------| 4 Times

Intro (Rome):
e|--------------------------------|
B|----0-------0------0-------0----|
G|---4-4----4---4---2-2----1---1--|
D|--4---4--2-2---2-2---2--2-2---2-|
A|-2-----4--------0-----2---------|
E|--------------------------------| played twice, then goes to...

Intro cont. (Rome):
e|---------------------------------------------------|
B|-5-7-12-9--7-5-7--12-9--7-5-7-12-9--7-5-5h7-5h7-5--|
G|---------------------------------------------------|
D|---------------------------------------------------|
A|---------------------------------------------------|
E|---------------------------------------------------|

Verse(s)
e|-------------------|
B|-------------------|  
G|-44-4444-22-1111---|
D|-44-2222-22-2222---|
A|-22-4444-00-2222---|
E|-------------------| Played 4 times, clean.

   Keep quiet girl,
   We're shouting over these broken speakers.
   They're playing our song
   as I try to smooth talk.
   I'm growing tired of this scenery,
   and happy voices that aren't my own
   to compliment 
   my intentions
   of making love.

PreChorus(es)
e|-----------------------------------|
B|-----------------------------------|
G|-4444446666666666------1111111111--|
D|-44444466666666667777772222222222--|
A|-22222244444444447777772222222222--|
E|-----------------555555------------| Played Twice, distorted, palm muted.

   So now i've got you on your feet.
   We'll skip the dancing and head straight, 
   we'll head straight,
   Head straight for the door.
   I'm looking forward to the drive, 
   I see reflections of the city lights 
   in your eyes,
   In your eyes. 


Chorus Rhythm (Rome):
e|----------------------------------|
B|----------------------------------|
G|-4-444-6-6666666-------1-1111111--|
D|-4-444-6-6666666-7-777-2-2222222--|
A|-2-222-4-4444444-7-777-2-2222222--|
E|-----------------5-555------------| Played 4 Times, continued distortion. 

Chorus Lead (Richie):
e|------------------------------------------|               |--------------|
B|------------------------------------------|               |--------------|
G|-9-11-16-13-\11-11-\9-11-16-13-\11-11-\9--|               |-9/11-9/11-9--|
D|-x-x--x--x--\x--x--\x-x--x--x--\x--x--\x--|               |-x/x--x/x--x--|
A|-7-9--14-11-\9--9--\7-9--14-11-\9--x--\7--|               |-7/9--7/9--7--| 
E|------------------------------------------| and ends with |--------------| Whole 
thing played Twice.

   It's just the way you are, girl.
   you're making me 
   sweat these small 
   things.
   and it's just the way you are girl.
   You're making me 
   sweat these small 
   things.


Preverse (Rhythm; same as chorus)

Preverse Lead (Richie): 
e|----------------------------------------------------------------|
B|-5-7~-7/12-9b--7-5-7~-7/12-14~-1212\9\7-9/12-9b--7-5-5h7-5h7-5--|
G|----------------------------------------------------------------|
D|----------------------------------------------------------------|
A|----------------------------------------------------------------|
E|----------------------------------------------------------------|


Verse 2 (Rhythm; same as first verse, played clean):

   With everything I am, 
   and everything I did,
   It's so outgleamed 
   by the way you move.
   Keep me guessing, keep me tongue tied.
   Keep me head over heels tonight.
   Do I make you, 
   am I making you sweat?

Verse 2 Lead, also played clean (Richie):
e|-----------------------------------------------------|
B|-5-7--12-9--7-5-7--12-9--7-5-7--12-9--7-5-5h7-5h7-5--|
G|-----------------------------------------------------|
D|-----------------------------------------------------|
A|-----------------------------------------------------|
E|-----------------------------------------------------| 

e|------------------------12----------------------------------|
B|-5-7-7/12-9--12-14-12-14--14-12--9-5-7/12-9--7-5-5h7-5h7-5--|
G|------------------------------------------------------------|
D|------------------------------------------------------------|
A|------------------------------------------------------------|
E|------------------------------------------------------------|


PreChorus 2.

Chorus 2.


Bridge (Same as intro for both guitars):
   
   Why can't you see?
   why can't you see?
   You keep making me sweat.
   You keep making me sweat.

Solo (Rome):
e|----------------------11h12-12-11-11h12p11-------------------------------------------|
B|-5-7~-7/12-9--12~12/14--------------------12/14~-1212-12\9-7-9/12-9b--7-5-5h7-5h7-5--|
G|-------------------------------------------------------------------------------------|
D|-------------------------------------------------------------------------------------|
A|-------------------------------------------------------------------------------------|
E|-------------------------------------------------------------------------------------|

e|------------------12-1111--------------------12-12h14-14/16-19-16b--14-12--|
B|-5h75/77h97/9-9h12-------12/14\12-9-12~-12/14------------------------------|
G|---------------------------------------------------------------------------|
D|---------------------------------------------------------------------------|
A|---------------------------------------------------------------------------|
E|---------------------------------------------------------------------------|

e|-12h14p12------------------------12h14p12-----12h14-14/1616161616\--|
B|---------14-12-9-12-7~7/9-12-14----------12h14----------------------|
G|--------------------------------------------------------------------|
D|--------------------------------------------------------------------|
A|--------------------------------------------------------------------|
E|--------------------------------------------------------------------|


Chant (same as chorus riff)

Ending Chorus (same as above)

Closing riff (Same as intro)





************************************

| /   slide up
| \   slide down
| h   hammer-on
| p   pull-off
| ~   vibrato
| +   harmonic
| x   Mute note
| b   Bend
| pb  Pre-bend
| br  Bend release
| pbr Pre-bend release
| brb Bend release bend

************************************
Tap to rate this tab
 
# A B C D E F G H I J K L M N O P Q R S T U V W X Y Z