Song name
# A B C D E F G H I J K L M N O P Q R S T U V W X Y Z

Summoning - The Passing Of The Grey Company tab

Summoning - The Passing of the Grey Company (From Minas Morgul)

Transcribed by Fredrik Karlsson (Battlescar_psy@hotmail.com)

Riff 1
e[------------------|-----------------------------------------------]
b[------------------|-----------------------------------------------]
g[------------------|-----------------------------------------------]
d[------------------|-----------------------------------------------]
a[-6-8-6-8-9-11-9-8-|-6-8---6-8-------------------------------------]
E[------------------|-----9-----6-----------------------------------]

Riff 2
e[------------------------------------------------------------------]
b[------------------------------------------------------------------]
g[------------------------------------------------------------------]
d[-8-11-9-11-8-9-8--------------------------------------------------]
a[-----------------8------------------------------------------------]
E[------------------------------------------------------------------]
Tap to rate this tab
# A B C D E F G H I J K L M N O P Q R S T U V W X Y Z