Song name
# A B C D E F G H I J K L M N O P Q R S T U V W X Y Z

Summoning - Lugburz tab

Summoning - Lugburz (From Minas Morgul)

Transcribed by Fredrik Karlsson (Battlescar_psy@hotmail.com)

Riff 1
e[------------------------------------------------------------------]
b[------------------------------------------------------------------]
g[------------------------------------------------------------------]
d[-8-6-9-4-8-9-6-8--------------------------------------------------]
a[-----------------6-9----------------------------------------------]
E[------------------------------------------------------------------]

Riff 2 (Fast epic part)
e[------------------------------------------------------------------]
b[------------------------------------------------------------------]
g[------------------------------------------------------------------]
d[-----------------8-6-8-6------------------------------------------]
a[-6-4-6-8-6-9-8-6---------9-11-9-8-6-------------------------------]
E[------------------------------------------------------------------]
Tap to rate this tab
# A B C D E F G H I J K L M N O P Q R S T U V W X Y Z