Song name
# A B C D E F G H I J K L M N O P Q R S T U V W X Y Z

Summoning - Marching Homewards tab

Summoning - Marching Homewards (Minas Morgul)

This song is eight minutes long. Pretty tough on the wrists...

Transcribed by Fredrik Karlsson (Battlescar_psy@hotmail.com)

Riff 1
e[------------------------------------------------------------------]
b[------------------------------------------------------------------]
g[----------14-12-15-12-14-12-15-14-12-14---------------------------]
d[-15-12-15-------------------------------15-14-15-14-10-12---------]
a[------------------------------------------------------------------]
E[------------------------------------------------------------------]

Riff 2
e[------------------------------------------------------------------]
b[------------------------------------------------------------------]
g[----17----16-17----9-10-12-10-9-7-9-------------------------------]
d[-15----14-------12------------------------------------------------]
a[------------------------------------------------------------------]
E[------------------------------------------------------------------]

Riff 3 (The fast part)
e[-------------|----------------------------------------------------]
b[-------------|----------------------------------------------------]
g[-------------|----------------------------------------------------]
d[-5-0-5-0-7-8-|-7---7---7-8-(5)------------------------------------]
a[-------------|---8---8--------------------------------------------]
E[-------------|----------------------------------------------------]

(5) = Only played at ending (let ring)
Tap to rate this tab
# A B C D E F G H I J K L M N O P Q R S T U V W X Y Z