Song name
# A B C D E F G H I J K L M N O P Q R S T U V W X Y Z

Summoning - Morthond tab

Summoning - Morthond (From Minas Morgul)

Transcribed by Fredrik Karlsson (Battlescar_psy@hotmail.com)

Riff 1 (First time, play this riff slow. Second time, play it fast)
e[------------------------------------------------------------------]
b[------------------------------------------------------------------]
g[------------------------------------------------------------------]
d[-8----------------------------------------------------------------]
a[---9-8-6-8-9-8-6-8-9-8--------------------------------------------]
E[------------------------------------------------------------------]

Riff 2 (Fast part)
e[------------------------------------------------------------------]
b[------------------------------------------------------------------]
g[------------------------------------------------------------------]
d[-8----------------------------------------------------------------]
a[---8-11-9-8-9-11--------------------------------------------------]
E[------------------------------------------------------------------]
Tap to rate this tab
# A B C D E F G H I J K L M N O P Q R S T U V W X Y Z