Song name
# A B C D E F G H I J K L M N O P Q R S T U V W X Y Z

Summoning - Through The Forest Of Dol Guldur tab

Summoning - Through The Forest Of Dol Guldur.(From Minas Morgul)

Transcripted by Dusk(eclipse@mail.ru).
Listen to the record for the timings

Riff1
-----------------------------------------------------------------------
-----------------------------------------------------------------------
----5-------6-------5-----5-6-5----------------------------------------
3-6---6-3-6---6---6---6-5----------------------------------------------
----------------6------------------------------------------------------
-----------------------------------------------------------------------

Riff2
-----------------------------------------------------------------------
-----------------------------------------------------------------------
--5---3----------------------------------------------------------------
3---1---5-3-5-6-5------------------------------------------------------
-----------------------------------------------------------------------
-----------------------------------------------------------------------

Riff3(Clean Guitar)
-----------------------------------------------------------------------
-----------------------------------------------------------------------
-----------------------------------------------------------------------
----9-7----------------------------------------------------------------
7-------9-7----9---7-9-10-9-7----7-10-9--------7-9-10------------------
--7---------10---7------------10--------7-8-10-------------------------
Tap to rate this tab
# A B C D E F G H I J K L M N O P Q R S T U V W X Y Z