Song name
# A B C D E F G H I J K L M N O P Q R S T U V W X Y Z

Summoning - Ungolianth tab

Help us improve GuitareTab! Take a short survey!
Summoning - Ungolianth.(From Minas Morgul)

Transcripted by Dusk (eclipse@mail.ru).
Listen to the record for the timings.

Riff1
-----------------------------------------------------------------------
-----------------------------------------------------------------------
10----10-12----12-13-12-10-13-12-8-10-12-------------------------------
---10-------10---------------------------------------------------------
-----------------------------------------------------------------------
-----------------------------------------------------------------------

Riff2
-----------------------------------------------------------------------
13-------13-11----------11---------------------------------------------
---10-12-------10-12-13----13------------------------------------------
-----------------------------------------------------------------------
-----------------------------------------------------------------------
-----------------------------------------------------------------------
Related for Ungolianth tab