Song name
# A B C D E F G H I J K L M N O P Q R S T U V W X Y Z

Summoning - Across The Streaming Tide tab

Band: Summoning
Album: Oath Bound
Song: Across the Streaming Tide

Tab: zachskates, z.skates@hotmail.com

Across the Streaming Tide

Riff 1
E||--------------------------|--------------------------|
B||--------------------------|--------------------------|
G||--7-----5-----8-----5-----|--7-----5-----8-----7-----|
D||-----5-----5-----5-----5--|-----5-----5-----5-----5--|
A||--------------------------|--------------------------|
E||--------------------------|--------------------------|


--------------------------|--------------------------|
--------------------------|--------------------------|
--8-----5-----7-----5-----|--8-----5-----8-----7--8--|
-----6-----6-----6-----6--|-----6-----6-----6--------|
--------------------------|--------------------------|
--------------------------|--------------------------|


--------------------------|--------------------------|
--------8-----------------|--------8-----------------|
--7-----------7-----8-----|--7-----------7-----7--8--|
-----5-----5-----5-----5--|-----5-----5-----8--------|
--------------------------|--------------------------|
--------------------------|--------------------------|


--------------------------|--------------8-----8--10--|
--------6-----------------|--------8------------------|
--5-----------8-----5-----|--7------------------------|
-----5-----5-----5-----5--|-----5-----5-----5---------|
--------------------------|---------------------------|
--------------------------|---------------------------|


Riff 2
--10-----------10-----------|--10--------------10-----6--|
---------8------------8-----|---------8------------------|
------7-----7------7-----7--|------7-----7--7------7-----|
----------------------------|----------------------------|
----------------------------|----------------------------|
----------------------------|----------------------------|


--8-----------8-----------|--8-----------10--6--8-----|
--------8-----------8-----|--------8------------------|
-----5-----5-----5-----5--|-----5-----5------------5--|
--------------------------|---------------------------|
--------------------------|---------------------------|
--------------------------|---------------------------|


--11------------11------------|--11------------11------------|
---------11------------11-----|---------11------------11-----|
------8------8------8------8--|------8------8------8------8--|
------------------------------|------------------------------|
------------------------------|------------------------------|
------------------------------|------------------------------|


---------------10------------|--10------------10-----10--11--||
--10-----6------------10-----|---------10--------------------||
------7-----7------7------7--|------7------7------7----------||
-----------------------------|-------------------------------||
-----------------------------|-------------------------------||
-----------------------------|-------------------------------||

Tap to rate this tab
 
# A B C D E F G H I J K L M N O P Q R S T U V W X Y Z