Song name
# A B C D E F G H I J K L M N O P Q R S T U V W X Y Z

Summoning - Beleriand tab

Band: Summoning
Album: Oath Bound
Song: Beleriand

Tab: zachskates, z.skates@hotmail.com 

Beleriand

Riff 1
E||----------------------|-----------------------|---------------------|
B||------------------10--|---------------10------|--------10--------8--|
G||-----7--10-----7------|-----7--10---------10--|-----9---------9-----|
D||--7---------7---------|--7---------7----------|--7---------7--------|
A||----------------------|-----------------------|---------------------|
E||----------------------|-----------------------|---------------------|


-----------------------|-----------------5--|-----------------7--|
--------10-----10------|--------8-----------|--------8-----------|
-----9-------------10--|-----7--------7-----|-----7--------7-----|
--7---------7----------|--5--------5--------|--5--------5--------|
-----------------------|--------------------|--------------------|
-----------------------|--------------------|--------------------|


------------------8--|-----------------------|
--------10-----------|--------10-----12--10--|
-----9---------9-----|-----9-----------------|
--7---------7--------|--7---------7----------|
---------------------|-----------------------|
---------------------|-----------------------|


Riff 2
----------------------|----------------------|--------------------|
--------10--------10--|--------10--------10--|--------8--------8--|
-----9---------9------|-----9---------9------|-----7--------7-----|
--7---------7---------|--7---------7---------|--5--------5--------|
----------------------|----------------------|--------------------|
----------------------|----------------------|--------------------|


--------------------|--------------------|--------------------|
--------8--------8--|--------5--------5--|--------5--------5--|
-----7--------7-----|-----4--------4-----|-----4--------4-----|
--5--------5--------|--2--------2--------|--2--------2--------|
--------------------|--------------------|--------------------|
--------------------|--------------------|--------------------|


----------------------|----------------------|
--------10--------10--|--------10--------10--|
-----9---------9------|-----9---------9------|
--7---------7---------|--7---------7---------|
----------------------|----------------------|
----------------------|----------------------|


Riff 3 (Tremelo Pick)
----------------|-----------------|------------------|-----------------|
----------------|-------------10--|--8--------10--8--|--------------10-|
----------------|------9----------|------------------|--9--------------|
--10------------|-----------------|------------------|-----------------|
----------------|-----------------|------------------|-----------------|
----------------|-----------------|------------------|-----------------|


----------------|-------------------|---------------|----------------|
--12------------|-------------------|---------------|----------------|
----------------|--------9------11--|--9------------|----------------|
----------------|--12---------------|---------------|--10------------|
----------------|-------------------|---------------|----------------|
----------------|-------------------|---------------|----------------|
Tap to rate this tab
# A B C D E F G H I J K L M N O P Q R S T U V W X Y Z