Sun Eats Hours - Now Again tab

    Grupo: Sun Eats Hours
  Cancion: Now, Again
    Album: The Last Ones
  Tabeado por Dantehard

  intro
e|----------------------------------------------|
b|---5-6---5-6-6-5---5h6-6-5-----3-5---3-5------|
g|-7-----7---------5---------5-3-----5----------|(x3)
d|----------------------------------------------|
a|----------------------------------------------|
e|----------------------------------------------|

  pre-verso
e|----------------------------------------------|
b|----------------------------------------------|
g|-7-7-7/9-9/10------10-10-10/9-9/10/7----------|(x2)
d|-x-x-x/x-x/-x-(x3)--x--x--x/x-x/-x/x----------|
a|-5-5-5/7-7/12-------8--8--8/7-7/-8/5----------|
e|----------------------------------------------|

  verso 1
e|-----------------------------------------|
b|-----------------------------------------|
g|-7777777777777777-7/---------------------|
d|-xxxxxxxxxxxxxxxx-x/33-3-33-3-33-3-33-3/-|
a|-5555555555555555-5/33-3-33-3-33-3-33-3/-|
e|--------------------11-1-11-1-11-1-11-1/-|
                      ..   ..   ..   ..

e|------------------------------------------|
b|------------------------------------------|
g|--55-5-55-5-55-5-55-5/33-3-33-3/55-5-55-5-|
d|-/55-5-55-5-55-5-55-5/33-3-33-3/55-5-55-5-|
a|-/33-3-33-3-33-3-33-3/11-1-11-1/33-3-33-3-|
e|-/----------------------------------------|
    ..   ..   ..   ..   ..   ..   ..   ..

e|-----------------------------------------|
b|-----------------------------------------|
g|-7777777777777777-7/---------------------|
d|-7777777777777777-7/33-3-33-3-33-3-33-3/-|
a|-5555555555555555-5/33-3-33-3-33-3-33-3/-|
e|--------------------11-1-11-1-11-1-11-1/-|
                      ..   ..   ..   ..   .

e|------------------------------------------|
b|------------------------------------------|
g|--55-5-55-5-55-5-55-5/33-3-33-3/55-5-55-5-|
d|-/55-5-55-5-55-5-55-5/33-3-33-3/55-5-55-5-|
a|-/33-3-33-3-33-3-33-3/11-1-11-1/33-3-33-3-|
e|-/----------------------------------------|
    ..   ..   ..   ..   ..   ..   ..   ..

  coro 1
e|--------------------------------------------------------------------|
b|--------------------------------------------------------------------|
g|-7-7-7-7---------5-5-5-5-3-3-3-3-7-7-7-7---------5-5-5-5-3-3-3-3-7/-|
d|-7-7-7-7-3-3-3-3-5-5-5-5-3-3-3-3-7-7-7-7-3-3-3-3-5-5-5-5-3-3-3-3-7/-|
a|-5-5-5-5-3-3-3-3-3-3-3-3-1-1-1-1-5-5-5-5-3-3-3-3-3-3-3-3-1-1-1-1-5/-|
e|---------1-1-1-1-------------------------1-1-1-1--------------------|

  verso 2 toca el bajo


e|-----------------------------------------------------------|
b|-----------------------------------------------------------|
g|-----------7-777777777-------------5-555555555-3-333333333-|
d|-----------7-777777777-3-333333333-5-555555555-3-333333333-|
a|->>>>>>>>>-5-555555555-3-333333333-3-333333333-1-111111111-|
e|-----------------------1-111111111-------------------------|
               .........   .........   .........   .........

  pre-coro
e|---------------------------------------------|
b|---------------------------------------------|
g|-77777-------55555-33333-55555---------------|
d|-77777-33333-55555-33333-55555---------------|
a|-55555-33333-33333-11111-33333---------------|
e|-------11111---------------------------------|


  coro 2
e|-----------------------------------------------------------------|
b|-----------------------------------------------------------------|
g|-7-7-7-7---------5-5-5-5-3-3-3-3-7-7-7-7---------5-5-5-5-3-3-3-3-|(x2)
d|-7-7-7-7-3-3-3-3-5-5-5-5-3-3-3-3-7-7-7-7-3-3-3-3-5-5-5-5-3-3-3-3-|
a|-5-5-5-5-3-3-3-3-3-3-3-3-1-1-1-1-5-5-5-5-3-3-3-3-3-3-3-3-1-1-1-1-|
e|---------1-1-1-1-------------------------1-1-1-1-----------------|


  intro gt. 1
e|----------------------------------------------|
b|---5-6---5-6-6-5---5h6-6-5-----3-5---3-5------|
g|-7-----7---------5---------5-3-----5----------|(x3)
d|----------------------------------------------|
a|----------------------------------------------|
e|----------------------------------------------|

  coro 3 gt. 1
e|----------------------------------------------|
b|----------------------------------------------|
g|-7-7-7/9-9/10------10-10-10/9-9/10/7----------|(x2)
d|-x-x-x/x-x/-x-(x3)--x--x--x/x-x/-x/x----------|
a|-5-5-5/7-7/12-------8--8--8/7-7/-8/5----------|
e|----------------------------------------------|


  coro 3 gt. 2
e|--------------------------------------------------------------------|
b|--------------------------------------------------------------------|
g|-7-7-7-7---------5-5-5-5-3-3-3-3-7-7-7-7---------5-5-5-5-3-3-3-3-7/-|
d|-7-7-7-7-3-3-3-3-5-5-5-5-3-3-3-3-7-7-7-7-3-3-3-3-5-5-5-5-3-3-3-3-7/-|
a|-5-5-5-5-3-3-3-3-3-3-3-3-1-1-1-1-5-5-5-5-3-3-3-3-3-3-3-3-1-1-1-1-5/-|
e|---------1-1-1-1-------------------------1-1-1-1--------------------|

  Dantehard
Tap to rate this tab
 
# A B C D E F G H I J K L M N O P Q R S T U V W X Y Z