Song name
# A B C D E F G H I J K L M N O P Q R S T U V W X Y Z

Sun Eats Hours - Now Again tab

Sun Eats Hours
Now, Again
The Last Ones

intro
e|------------------------------------------|
b|-2-4-5-2-4-5-5-4-0--4h5-5-4-0----4-5---2-3|
g|-------------------------------2-----4----|
d|------------------------------------------|
a|------------------------------------------|
e|------------------------------------------|

pre-verse
e|-------------------------------------|
b|-------------------------------------|
g|-6-6-8-9--6-6-8-9--6-6-8-9--9-9-8-8-4|
d|-6-6-8-9--6-6-8-9--6-6-8-9--9-9-8-8-4|
a|-4-4-6-7--4-4-6-7--4-4-6-7--7-7-6-6-2|
e|-------------------------------------|

verse 1
e|--------------------------------|
b|--------------------------------|
g|-6-6-6-6-6-6-6-6-6-6-6-6-6-6-6-6|
d|-6-6-6-6-6-6-6-6-6-6-6-6-6-6-6-6|
a|-4-4-4-4-4-4-4-4-4-4-4-4-4-4-4-4|
e|--------------------------------|

e|----------------------------------------|
b|----------------------------------------|
g|-444444444444-666666666666-999999-888888|
d|-444444444444-666666666666-999999-888888|
a|-222222222222-444444444444-777777-666666|
e|----------------------------------------|
   .. .. .. ..  .. .. .. ..  .. ..  .. .. 
e|-----------------------------------------------------|
b|-----------------------------------------------------|
g|-666666666666-444444444444-666666666666-999999-888888|
d|-666666666666-444444444444-666666666666-999999-888888|
a|-444444444444-222222222222-444444444444-777777-666666|
e|-----------------------------------------------------|
   .. .. .. ..  .. .. .. ..  .. .. .. ..  .. ..  ......

chorus
e|------------------------|
b|------------------------|
g|-66666-44444-99999-22222|
d|-66666-44444-99999-22222|
a|-44444-22222-77777-00000|
e|------------------------|

verse 2

part 1 no guitar

part 2
e|----------------------------------------------------------------------|
b|----------------------------------------------------------------------|
g|---6666666666666666-4444444444444444-6666666666666666-8888888888888888|
d|---6666666666666666-4444444444444444-6666666666666666-8888888888888888|
a|>>>4444444444444444-2222222222222222-4444444444444444-6666666666666666|
e|----------------------------------------------------------------------|
      ...............  ...............  ...............  ...............

pre-chorus
e|--------------------|
b|--------------------|
g|-6666-4444-9999-2222|
d|-6666-4444-9999-2222|
a|-4444-2222-7777-0000|
e|--------------------|

interlude
e|-------------------------------------------------------------------|
b|-------------------------------------------------------------------|
g|-666666666666666-4444444444444444-2222222222222222-4444444444444444|
d|-666666666666666-4444444444444444-2222222222222222-4444444444444444|
a|-444444444444444-2222222222222222-0000000000000000-2222222222222222|
e|-------------------------------------------------------------------|
   ............... ................ ................ ................
intro x3
pre-verse x2
verse 1 x1
chorus x2
verse 2 x1
pre-chorus x2
chorus x4
intro x2/interlude on 2nd intro (2nd guitar)
chorus x4/pre-verse x4 (2nd guitar)
Tap to rate this tab
# A B C D E F G H I J K L M N O P Q R S T U V W X Y Z