Song name
# A B C D E F G H I J K L M N O P Q R S T U V W X Y Z

Sun Eats Hours - Rustles tab

-------------------------------------------------------------------------------
			     RUSTLES - Sun eats hours
-------------------------------------------------------------------------------
Tabbed by: Michael Gareis
Email: m.gareis@gmx.net

Tuning: Standard

Riff 1
E||-------------------------|------------------------||
B||---------5----------5----|--------5-----------5---||
G||-----4-----4-----4----4--|-----4----4------4------||
D||--2----------------------|--5------------0--------||
A||---------------3---------|------------------------||
E||-------------------------|------------------------||

Riff 2
E||--------------------------------|-------------------------------||
B||--------------------------------|-------------------------------||
G||---9--9--9----------------------|--12--12--12--14--7--7--7--7---||
D||---9--9--9--10--12--12--12------|--12--12--12--14--7--7--7--7---||
A||---7--7--7--10--12--12--12------|--10--10--10--12--5--5--5--5---||
E||-------------8--10--10--10------|-------------------------------||

Riff 3

E||-------------------------|--------------------------||
B||---5--5--5----5--5--5----|--5--5--5----8--7--5--3---||
G||-----------4----------4--|----------4---------------||
D||-------------------------|--------------------------||
A||-------------------------|--------------------------||
E||-------------------------|--------------------------||

___________________
Ablauf:
2x Riff 1
2x Riff 2
2x Riff 2 + Riff 3
___________________

| /  slide up
| \  slide down
| h  hammer-on
| p  pull-off
| ~  vibrato
| +  harmonic
| x  Mute note
===============================================================================
Tap to rate this tab
# A B C D E F G H I J K L M N O P Q R S T U V W X Y Z