Song name
# A B C D E F G H I J K L M N O P Q R S T U V W X Y Z

Sun Kil Moon - Truckers Atlas tab

Maii,

This is a tab for one of the best songs on the ‘Tiny Cities’ album of Sun Kil Moon. I’m
confident about the accuracy of the intro, though the chorus might need some revising.
just that because of Mark Kozelek’s voice during the chorus it’s harder to hear than 
the (instrumental) intro. Ah well, this better than nothing.

The tuning is standard EADGBE and a capo doesn’t have to be used.

Have fun playing. For any suggestions or questions e-mail:
baculaat@hotmail.com

Bert, Holland

Intro and couplets

e|----------0---------2------0--------0---------7-----0----------|
B|------------------0------0-------------------------------------|
G|-------0--------2------2---------0----------0-----0------------|
D|--0-2------0-----------------0-2------0---7-----7--------------|
A|---------------------------------------------------------------|
E|-------------3-------3------------------8------8---------------|

Chorus

Coming up to Alaska...

e|----2-----0--------2------0-------2------0----0----2----0-------|
B|----------------------------------------------------------------|
G|---2-----2--------2------2-------2-----2----------2----2--------|
D|------------------------------------------------0--0--0--0------|
A|--0--0--0-—0-----2—-2-—2--2—----3--3--3--3----------------------|
E|-------------------------------------------------------------3—-|

Sun Kil Moon website:

http://www.sunkilmoon.com/

The leadsinger is called Mark Kozelek, who is also a member of Red House Painters and
a few solo albums.
Tap to rate this tab
 
# A B C D E F G H I J K L M N O P Q R S T U V W X Y Z