Song name
# A B C D E F G H I J K L M N O P Q R S T U V W X Y Z

Sun Kil Moon - Carry Me Ohio tab

===========================================================
                     Sun Kil Moon - Carry Me Ohio
===========================================================


standard tuning capo 2
Seems there are no tabs for this, so this is how i spent my after noon.
my first shot on this song, i'm a uncertain if he use standard tuning, but it works pretty good.

intro/verse
E|-0--0--0-|
B|-0--0--0-|
G|-2--2--2-|
D|-2--2--2-|
A|-X--X--0-|
E|-2--4----|


chorus
E|-0--0--0--2--0--0--0-|
B|-0--0--0--3--3--2--0-|
G|-2--2--2--2--2--2--2-|
D|-2--2--2--0--0--2--2-|
A|-X--X--0--X--X--0--1-|
E|-2--4--X--X--X--X--0-|

it took me a while, thanks for looking up this music.
Tap to rate this tab
# A B C D E F G H I J K L M N O P Q R S T U V W X Y Z