Song name
# A B C D E F G H I J K L M N O P Q R S T U V W X Y Z

Sun Kil Moon - Heron Blue tab

Sun Kil Moon - Heron Blue
Tabbed by:Jack Sharp

Okay I Litterally Just Heard This Song On The Gears Of War 3 Trailer And Started Working 
Out Quickly, I Havent Attempted The Solo Yet Sorry.
This Is My First Tab That I Would Say Is About 90-95% Correct.
Yeah I Know, Its A Simple Song.

Tuning:
Standard

For Nearly The Whole Song You Will Hear This Arpeggio, Muck Around With DM Open Chord:
Guitar 1.
e|-------------------------------------------------------------------------|
B|-3-3-3-3-3-3-3-3-3-3-3-3-3-3-3-3-----------------------------------------|
G|2-2-2-2-2-2-2-2-2-2-2-2-2-2-2-2------------------------------------------|
D|-------------------------------------------------------------------------|
A|-------------------------------------------------------------------------|
E|-------------------------------------------------------------------------|

Main Riff (Not Sure How Many Times This Is Repeated,Alot) Guitar 2.
e|-------------------------------------------------------------------------|
B|-------------------------------------------------------------------------|
G|-------------------------------------------------------------------------|
D|-5-55-8-88--3-5-3-5--0-55---5-55-8-88--3-5-3-5---0-0---------------------|
A|--------------------3---------------------------3-3----------------------|
E|-------------------------------------------------------------------------|

Then Just Before The Solo/Bridge And During The Arpeggio Goes:
e|-3-3-3-3-3-3-3-3-3-3-3-3-3-3-3-3-----------------------------------------|
B|-3-3-3-3-3-3-3-3-3-3-3-3-3-3-3-3-----------------------------------------|
G|2-2-2-2-2-2-2-2-2-2-2-2-2-2-2-2------------------------------------------|
D|-------------------------------------------------------------------------|
A|-------------------------------------------------------------------------|
E|-------------------------------------------------------------------------|

I Know The Tab Is Rough And Raw Im Sorry When I Have Mre Time I'll Figure Out The Rest 
i Hve The Time.
Comment And Rate (:

Lyrics:

Don't cry my love don't cry no more
A crashing sky a rolling screen
A city drowning Gods black tears
I cannot bear to see


She lay under the midnight moon
Her restless body stiring
Until the magic morning hour
Like poison it succumbs her


Her baby skin her old black dress
Her hair it twists round her necklace
Constricts and chokes like ruthless vines
To sleep she overtakes her?


Her room is painted Heron Blue
Lit by candlelight and chandelier
And from her headboard perched so high
A million dreams have passed her


Don't cry my love don't cry no more
It overwhelms my breaking heart
A minor swell of violins
I cannot bear to hear them


A mother shepherds her young birds
she fills their mouths and warms their souls
Til they are strong and good to fly
Away from her alone she'll die


Cradle on quiet old oak limbs
As heaven blue her light fails
A breath of soot into her lungs
A life, a journeys end in one


Don't sing that old sad hymn no more
It resonates inside my soul
It haunts me in my waking dream
I cannot bear to hear it.
Tap to rate this tab
 
# A B C D E F G H I J K L M N O P Q R S T U V W X Y Z