Song name
# A B C D E F G H I J K L M N O P Q R S T U V W X Y Z

Sun Kil Moon - Heron Blue tab

This is my very first tab so tell me what you think

e------------------------------------------|
B------------------------------------------|
G----0--0--0--3--3--3-----0-----0---------0|     x26
D----------------------3-----3-------0-(3)-|
A----------------------------------3-------|
E------------------------------------------|

e------------------------------------------|
B------------------------------------------|
G----------------0--3--2--0--0-----0--0----|
D------0--1---3-----------------3--------3-|
A----3-------------------------------------|
E------------------------------------------|

e------------------------------------------|
B------------------------------------------|
G--0--3--5--2--3--0--2-----0--0-----0--0---|
D-----------------------3--------3--------3| then back to the top
A------------------------------------------|
E------------------------------------------|
Tap to rate this tab
 
# A B C D E F G H I J K L M N O P Q R S T U V W X Y Z