Song name
# A B C D E F G H I J K L M N O P Q R S T U V W X Y Z

Sundays Best - When Is Pearl Harbour Day tab

intro... i think. the last note i dont like at all... someone ought to fix this.
please? email me at kjoke8@hotmail.com.

-----------------------------------------------------------------------------|
-----------------------------------------------------------------------------|
----------7---9---11/12/11----7---9---7-----(x4)-----------------------------|
------7----------------------------------------------------------------------|
-----------------------------------------------------------------------------|
-----------------------------------------------------------------------------|


-----------------------------------------------------------------------------|
-----------------------------------------------------------------------------|
------7---9---11/12/11------------------7---9---11/12/11----7----------------|
--7-------------------------------------------7------------------------------|
-----------------------------------------------------------------------------|
-----------------------------------------------------------------------------|


-----------------------------------------------------------------------------|
-----------------------------------------------------------------------------|
------7---9---11/12/11------------------11/12/11----7----11/12/11---7--4-----|
--7--------------------------------------------------------------------------|
-----------------------------------------------------------------------------|
-----------------------------------------------------------------------------|
Tap to rate this tab
# A B C D E F G H I J K L M N O P Q R S T U V W X Y Z