Song name
# A B C D E F G H I J K L M N O P Q R S T U V W X Y Z

Sundays - Cant Be Sure tab

Can't be Sure by the Sundays

1st verse
E-----------------------------------------------------------------|
B--8--8---8-7--7---7-5--5---5-7--7---7-8--8---8-7--7---7-5--5---5-|
G-----------------------------------------------------------------|
D-0--0--0--0--0--0--0--0--0--0--0--0--0--0--0--0--0--0--0--0--0---|
A-----------------------------------------------------------------|
E-----------------------------------------------------------------|

E----------|
B----------|
G--7--7--7-|
D-0--0--0--|
A----------|
E----------|

1st break play twice
e--------------------------------------|
B--7--7---7-7--7---7-7--7---7-7--7---7-|
G--------------------------------------|
D-0--0--0--0--0--0--0--0--0--0--0--0---|
A--------------------------------------|
E--------------------------------------|

2nd verse
E---------5---------5---------5---------5---------5---------5-------|
B--8--8------7--7------5--5------7--7------8--8------7--7------5--5-|
G-------------------------------------------------------------------|
D-0--0--0---0--0--0---0--0--0---0--0--0---0--0--0---0--0--0---0--0--|
A-------------------------------------------------------------------|
E-------------------------------------------------------------------|

E---5----------|
B--------------|
G------7--7--7-|
D-0---0--0--0--|
A--------------|
E--------------|

1st Chorus (1:18) - play once
E-----0----------0----------0----------0----------0----------0------|
B--------3-3--------3-3--------3-3--------3-3--------3-3--------3-3-|
G--4------4---2------2---4------4---2------2---4------4---2------2--|
D-0----------0----------0----------0----------0----------0----------|
A-------------------------------------------------------------------|
E-------------------------------------------------------------------|

E-----0----------0--0--|
B--------3-3-------3-3-|
G--4------4---2--------|
D-0----------0---------|
A----------------------|
E----------------------|

2nd break
E--------------------------------------------------------5--5--5--5-|
B--7--7---7-7--7---7-7--7---7-7--7---7-7--7---7-7--7---7------------|
G-------------------------------------------------------------------|
D-0--0--0--0--0--0--0--0--0--0--0--0--0--0--0--0--0--0--0--0--0-0---|
A-------------------------------------------------------------------|
E-------------------------------------------------------------------|

E--5---------|
B------7\(3)-|
G---------2--|
D-0--0----0--|
A------------|
E------------|

Bridge to Chorus at the 2:00 minute mark
E---------5----5-----5-------|
B------5--------5-----5------|
G--7-------------7-----7\(4)-|
D-0-7--------7---------------|
A----------------------------|
E----------------------------|

2nd Chorus
E-----0----------0----------0----------0----------0----------0------|
B--------3-3--------3-3--------3-3--------3-3--------3-3--------3-3-|
G--4------4---2------2---4------4---2------2---4------4---2------2--|
D-0--0-------0--0-------0--0-------0--0-------0--0-------0--0-------|
A-------------------------------------------------------------------|
E-------------------------------------------------------------------|

E-----0----------0-----------0----------0-----3---3------2---2----|
B--------3-3------3-3----3----3-3---3----3-3-----3-3-3------3-3-3-|
G--4------4---2----2-----2-2---2----2-2---2---------2----------2--|
D-0--0-------0--0-----0--0--------0-0--------0----------0---------|
A-----------------------------------------------------------------|
E-----------------------------------------------------------------|

E-----------------------------------------------------------------|
B--3---3--3---3---3--3---3---3--3---3---3--3----------------------|
G-----2-2--------2-2--------2-2--------2-2----2--4--6--7----------|
D-0------0---0------0---0------0---0------0--0--0--0--0----7----7-|
A--------------------------------------------------------5----5---|
E-----------------------------------------------------------------|

E------------------------------------------------------------------|
B------------------------------------------------------------------|
G------2--4--6--7----------------2--4--6--7----------------2--4--6-|
D---7-0--0--0--0----7----7----7-0--0--0--0----7----7----7-0--0--0--|
A-5---------------5----5----5---------------5----5----5------------|
E------------------------------------------------------------------|

E------------------------------------------------------------------|
B------------------------------------------------------------------|
G--7----------------2--4--6--7----------------2--4--6--7-----------|
D-0----7----7----7-0--0--0--0----7----7----7-0--0--0--0----7----7--|
A----5----5----5---------------5----5----5---------------5----5----|
E------------------------------------------------------------------|

E------------------------------------------------------|
B------------------------------------------------------|
G------2--4--6--7----------------2--4--6--7--7---7---7-|
D---7-0--0--0--0----7----7----7-0--0--0--0----------7--|
A-5---------------5----5----5---------------5---5------|
E------------------------------------------------------|


Outro
E---0---0---0---0---0---0---3---3---3---2---2---2---0---0---0---2---|
B----3---3-------3---3-------3---3-------3---3-------3---3-------3--|
G-----2---2-------2---2-------2---2-------2---2-------2---2-------2-|
D-0-----------0-----------0-----------0-----------0-----------0-----|
A-------------------------------------------------------------------|
E-------------------------------------------------------------------|

E-2---2---0---0-----|
B--3-------3---3--3-|
G---2-------2---2---|
D-------0-----------|
A-------------------|
E-------------------|
Tap to rate this tab
# A B C D E F G H I J K L M N O P Q R S T U V W X Y Z