Song name
# A B C D E F G H I J K L M N O P Q R S T U V W X Y Z

Sundays - A Certain Someone tab

A Certain Someone by the Sundays

Riff 1: (4 times)
E-----------------------|
B-----------------------|
G---------11------------|
D----------------12-----|
A------11---------------|
E-----------------------|

Riff 2:      "live your life, have your say . . ."
E---------------------------------------------------------------------------|
B---------------------------------------------------------------------------|
G---------------------------------------------------------------------------|
D-----------------------6------------------------------6--------------------|
A----5h7-7-7--5h7p5-----7--0-5-5-5--7-7---5h7p5-----7-----0---4h5p4h5-------|
E---------------------------------------------------------------------------|

E---------------------------------------------------------------------------|
B---------------------------------------------------------------------------|
G---------------------------------------------------------------------------|
D----------------------6-----6h7---------------6------6---------------------|
A---0-5-5-7--5h7p5------7------7--0-5h7-7-----7---------7-------------------|
E---------------------------------------------------------------------------|

repeat, w/ variation

"and I said oh no,  no!"
E-----------------0-----------|
B-----0-----0-----0-----------|
G----12-----7-----9-----------|
D----12-----7-----9-----------|
A----10-----5-----7-----------|
E-----0-----0-----0-----------|

(Riff 1 again.)
(Riff 2 again.)

" ooh oh . . ."
E-----------------------0------|
B---------0-----0-------0------|
G--------12----11-------9------|
D--------12----12-------9------|
A--------10----10-------7------|
E---------0-----0-------0------|

"you're too twisted . . ."
E-------0---0----0----0----0----0----0-|
B-------0---0----0----0----0----0----0-|
G------11--11---11---11----9----9----9-|
D------12--12---12---12----x----x----x-|
A------10--10---10---10---10---10---10-|
E-------0---0----0----0----0----0----0-|


"but that's fair enough"
E----0
B----0
G----9
D----9
A----7
E----0

(Riff 1 again.)
(Riff 2 again.)

"except perhaps a certain someone . . ."
E-------------------------------------|
B---7-----9-----7-----14---16---------|
G---7-----9-----7-----14---16---------|
D---5-----7-----5-----12---14---------|
A---5-----7-----5-----12---14---------|
E-------------------------------------|

"just to be sure of another way out"
E---------------0-|
B----0-----0----0-|
G---12----11----9-|
D---12----12----9-|
A---10----10----7-|
E----0-----0----0-|

"you're too twisted . . ."
E-------0---0----0----0----0----0----0-|
B-------0---0----0----0----0----0----0-|
G------11--11---11---11----9----9----9-|
D------12--12---12---12--- x----x----x-|
A------10--10---10---10---10---10---10-|
E-------0---0----0----0----0----0----0-|

Ending:
E-------0---0----0----0----0----0----0-------------0-----------|
B-------0---0----0----0----0----0----0-------------0-----------|
G------11--11---11---11----9----9----9------------11-----------|
D------12--12---12---12----x----x----x------------12-----------|
A------10--10---10---10---10---10---10------------10-----------|
E-------0---0----0----0----0----0----0-------------0-----------|
Tap to rate this tab
# A B C D E F G H I J K L M N O P Q R S T U V W X Y Z