Guitaretab - guitar tabs
Song name
# A B C D E F G H I J K L M N O P Q R S T U V W X Y Z

Sundowner - One Hundred Resolutions tab

-------------------------------------------------------------------------------
                        One Hundred Resolutions - Sundowner
                     (http://www.myspace.com/thesundownermusic)
-------------------------------------------------------------------------------
Tabbed by: SirCotare
Email: sircotare@3025-game.de
Creative-Commons Licence: http://creativecommons.org/licenses/by-nc-sa/2.0/at/
Correct me if I'm wrong! Anyway this is my first tab. Took me loads of time to do that!

Tuning: EADGBE
Capo @ 4th fret (as visible on a live video @ youtube)

INTRO
--x-x-x--x--x-x-x-x-x--x--x-x-x--x--x--x-x-x-x-x--x-x-x--x--x-x-x-x------------------------|
--0-0-0--0--0-0-0-0-0--0--0-0-0--0--0--x-x-x-x-x--0-0-0--0--0-0-0-0------------------------|
--0-0-0--0--0-0-0-0-0--0--0-0-0--0--0--0-0-0-0-0--0-0-0--0--0-0-0-0--0-0-0-0-0--2-2-2-2-2--|
--2-2-2--0--2-2-2-2-2--0--2-2-2--0--2--4-4-4-4-4--2-2-2--0--2-2-2-2--4-4-4-4-4--4-4-4-4-4--|
--3-3-3--3--2-2-2-2-2--3--3-3-3--3--2--5-5-5-5-5--3-3-3--3--2-2-2-2--5-5-5-5-5--5-5-5-5-5--|
--x-x-x--x--x-x-x-x-x--x--x-x-x--x--x--x-x-x-x-x--x-x-x--x--x-x-x-x------------------------|

VERSE 1
--------------------------------------------------|
--------------------------------------------------|
--0-0-0-0-0-0-0-0-0-0-0-0-0--0-0-0-0-0-0---2-2-2--|
--2-2-2-2-2-2-2-2-2-2-2-2-2--0-0-0-0-0-0---0-0-0--|
--2-2-2-2-2-2-2-2-2-2-2-2-2--3-3-3-3-3-3---3-3-3--|
--------------------------------------------------|
  Where have I been all your life?

VERSE 2
------------------------------------------------------|
------------------------------------------------------|
--0-0-0-0--0-0-0-0-0--0-0-0-0-0-0-0--2-2-2-2-2-2-2-2--|
--2-2-2-2--0-0-0-0-0--2-2-2-2-2-2-2--0-0-0-0-0-0-0-0--|
--2-2-2-2--2-2-2-2-2--3-3-3-3-3-3-3--3-3-3-3-3-3-3-3--|
------------------------------------------------------|
  Sitting on fences, a novocaine for all the senses.

VERSE 1: Another year will pass us by.
VERSE 2: Making sense of nothing, in defense of something.

INTERLUDE 1
------------------------------------------------------------|
------------------------------------------------------------|
--4-4-4-4-4-4-4--0-0-0-0-0-0--0-0-0-0-0-0--0-0-0-0-0-0-0-0--|
--5-5-5-5-5-5-5--2-2-2-2-2-2--0-0-0-0-0-0--2-2-2-2-2-0-2-0--|
--3-3-3-3-3-3-3--2-2-2-2-2-2--3-3-3-3-3-3--3-3-3-3-3-3-3-3--|
------------------------------------------------------------|
  I laughed too late and dug myself into a grave.

CHORUS 1
-----------------------------------------------------|
-----------------------------------------------------|
----------------------------0-0-0-0-0-0-0-0-0-0-0-0--|
--0-0-0-0-0-0-0-0-0-0-0-0-0-2-2-2-2-2-2-2-2-2-0-2-0--|
--2-2-2-2-2-2-2-2-2-2-2-2-2-3-3-3-3-3-3-3-3-3-3-3-3--|
--3-3-3-3-3-3-3-3-3-3-3-3-3--------------------------|
  This year I'll try not to think too much.

CHORUS 1: This year I'll try to stand up for myself.

CHORUS 2
------------------------------------------------------------------------|
------------------------------------------------------------------------|
--------------------------------0-0-0-0-0-0-0-0-0-0-0-0-0-0--0-0-0-0-0--|
--0-0--0-0-0-0-0-0-0-0-0-0-0-0--0-0-0-0-0-0-2-2-2-2-2-2-2-2--4-4-4-4-4--|
--2-2--0-0-0-0-0-0-0-0-0-0-0-0--3-3-3-2-2-2-3-3-3-3-3-3-3-3--5-5-5-5-5--|
--3-3--2-2-2-2-2-2-2-2-2-2-2-2------------------------------------------|
  This year I'll live like I've never lived before, this is my year for

ALTERNATE INTRO 1
-x-x-x--x--x-x-x-x-x--x--x-x-x--x--x--x-x-x-x-x--x-x-x--x--x-x-x-x-------------------------------|
-0-0-0--0--0-0-0-0-0--0--0-0-0--0--0--x-x-x-x-x--0-0-0--0--0-0-0-0-------------------------------|
-0-0-0--0--0-0-0-0-0--0--0-0-0--0--0--0-0-0-0-0--0-0-0--0--0-0-0-0------0-------0-------0--2-2-2-|
-2-2-2--0--2-2-2-2-2--0--2-2-2--0--2--4-4-4-4-4--2-2-2--0--2-2-2-2----4---4---4---4---4--4-4-4-4-|
-3-3-3--3--2-2-2-2-2--3--3-3-3--3--2--5-5-5-5-5--3-3-3--3--2-2-2-2--5-------5-------5------5-5-5-|
-x-x-x--x--x-x-x-x-x--x--x-x-x--x--x--x-x-x-x-x--x-x-x--x--x-x-x-x-------------------------------|
  sure.

VERSE 1: Another stupid clumsy story.
VERSE 2: More accidental aspirations.
VERSE 1: Another explosion of silence.
VERSE 2: I think I'm going deaf, or maybe I'm just hearing less.

INTERLUDE 1: This year I'll try to only listen to myself.

CHORUS 1: This year I'll try not to think too much.
CHORUS 1: This year I'll try to stand up for myself.
CHORUS 2: This year I'll live like I've never lived before, this is my year for

BRIDGE
-------------------------------------------------------------|
-------------------------------------------------------------|
--4-4-4-4-4---2-2-2-2-2-2---0-0-0-0---x-x-x-x---0-0-0-0-0-0--|
--5-5-5-5-5---4-4-4-4-4-4---2-2-2-2---4-4-4-4---2-2-2-2-2-2--|
--3-3-3-3-3---5-5-5-5-5-5---3-3-3-3---3-3-3-3---3-3-3-3-3-3--|
-------------------------------------------------------------|
sure.
[ Tab from: http://www.guitaretab.com/s/sundowner/91302.html ]
-------------------------------------------------------------------|
-------------------------------------------------------------------|
--4-4-4-4-4---2-2-2-2-2-2---0-0-0-0---x-x-x-x---0-0-0-0-0-0-0-0-0--|
--5-5-5-5-5---4-4-4-4-4-4---2-2-2-2---4-4-4-4---2-2-2-2-2-2-2-2-2--|
--3-3-3-3-3---5-5-5-5-5-5---3-3-3-3---3-3-3-3---3-3-3-3-3-3-3-3-3--|
-------------------------------------------------------------------|
						          I wonder

SLOW PART 1
-----------------------------------------------------|
-----------------------------------------------------|
--------------------------0-0-0-0-0-0-0-0-0-0-0-0-0--|
--0-0-0-0-0-0-0-0-0-0-0-0-0-0-0-0-0-0-0-0-2-2-2-2-2--|
--2-2-2-2-0-0-0-0-0-0-0-0-2-2-2-2-2-2-2-2-3-3-3-3-3--|
--3-3-3-3-2-2-2-2-2-2-2-2----------------------------|
  where         you'll be bringing in the new year.

SLOW PART 2
---------------------------------------------------------------------------------------------------|
---------------------------------------------------------------------------------------------------|
---------------------------------0-0-0-0-0-0-0-0-0-0-0-0-0-----------------------0-0-0-0-0-0-0-0-0-|
-0-0-0-0-0-0-0-0-0-0-0-0-0-0-0-0-0-0-0-0-0-0-2-2-2-2-2-2-2-0-0-0-0-0-0-0-0-0-0-0-0-0-0-0-0-0-0-0-0-|
-2-2-2-2-2-2-0-0-0-0-0-0-0-0-0-0-2-2-2-2-2-2-3-3-3-3-3-3-3-2-2-2-2-2-0-0-0-0-0-0-2-2-2-2-2-2-2-2-2-|
-3-3-3-3-3-3-2-2-2-2-2-2-2-2-2-2---------------------------3-3-3-3-3-2-2-2-2-2-2-------------------|
  As midnight clocks are singing, good chance I'll be slobbering somewhere.           
pass


SLOW PART 1: out, wasted, and sleeping 'till the smoke clears.
SLOW PART 2: Vague memories of midnight flash in tune to morning sunlight.
             Wake up knowing you'll never be

INTERLUDE 2
-----------------------|
-----------------------|
--0-0-0-0-0-0-0-0-0-0--|
--0-0-0-0-0-2-2-2-2-2--|
--2-2-2-2-2-3-3-3-3-3--|
-----------------------|
  there.

SLOW PART 3
---------------------------------------------------------------------------------|
---------------------------------------------------------------------------------|
----------------0-0-0-0-0-0-0-0-0-0---------------------0-0-0-0-0-0-0-0-0-0-0-0--|
--0-0-0-0-0-0-0-2-2-2-2-2-2-2-2-2-2--0-0-0-0--0-0-0-0-0-2-2-2-2-2-2-2-2-2-0-2-0--|
--2-2-2-2-2-2-2-3-3-3-3-3-3-3-3-3-3--2-2-2-2--0-0-0-0-0-3-3-3-3-3-3-3-3-3-3-3-3--|
--3-3-3-3-3-3-3----------------------0-0-0-0--2-2-2-2-2--------------------------|
  I've got one  hundred resolutions, but I've got no solutions.

--------------------------------------------------------------------------------------|
--------------------------------------------------------------------------------------|
-----------0-0-0-0-0-0-0-0-0-0-0-0-0-0-0-0-------------------------0-0-0-0-0-0-0-0-0--|
--0-0-0-0--2-2-2-2-2-2-2-2-2-2-2-2-2-2-2-2--0-0-0-0--0-0-0-0-0-0-0-2-2-2-2-2-2-2-2-2--|
--2-2-2-2--3-3-3-3-3-3-3-3-3-3-3-3-3-3-3-3--2-2-2-2--0-0-0-0-0-0-0-3-3-3-3-3-3-3-3-3--|
--3-3-3-3-----------------------------------0-0-0-0--2-2-2-2-2-2-2--------------------|
  I've got one song I write a hundred times and only a dozen or so rhymes.

ALTERNATE INTRO 2
-x-x-x--x--x-x-x-x-x--x--x-x-x--x--x--x-x-x-x-x--x-x-x--x--x-x-x-x--x--x-x-x--x--x--x-x-x-x-x-|
-0-0-0--0--0-0-0-0-0--0--0-0-0--0--0--x-x-x-x-x--0-0-0--0--0-0-0-0--0--0-0-0--0--0--x-x-x-x-x-|
-0-0-0--0--0-0-0-0-0--0--0-0-0--0--0--0-0-0-0-0--0-0-0--0--0-0-0-0--0--0-0-0--0--0--0-0-0-0-0-|
-2-2-2--0--2-2-2-2-2--0--2-2-2--0--2--4-4-4-4-4--2-2-2--0--2-2-2-2--0--2-2-2--0--2--4-4-4-4-4-|
-3-3-3--3--2-2-2-2-2--3--3-3-3--3--2--5-5-5-5-5--3-3-3--3--2-2-2-2--3--3-3-3--3--2--5-5-5-5-5-|
-x-x-x--x--x-x-x-x-x--x--x-x-x--x--x--x-x-x-x-x--x-x-x--x--x-x-x-x--x--x-x-x--x--x--x-x-x-x-x-|

OUTRO
---0----x--------------------x-------------x--|
---1----3--------------------0-------------0--|
---0----2--------------------0-------------0--|
---2----0--------------------2-------------2--|
---3-------------------------2-------------2--|
---x-------------------------0-------------0--|
  This year I'll try not to drink so much.

---0----x--------------------x-------------|
---1----3--------------------0----1--------|
---0----2--------------------0-0--0--------|
---2----0--------------------2-0--2--------|
---3-------------------------2-2--3--------|
---x-------------------------0-3--x--------|
  This year I'll try to stand up straight.

---0----x--------------------x-------------|
---1----3--------------------0----1--------|
---0----2--------------------0-0--0--------|
---2----0--------------------2-0--2--------|
---3-------------------------2-2--3--------|
---x-------------------------0-3--x--------|
  This year let's live liked we've never lived before,


ENDING
--0----------------------3--|
--1---1-----------3------3--|
--0-----0------2---------0--|
--2-------2--0-------4---0--|
--3-3--------------------2--|
--x----------------------3--|
    this is our year for sure.
Related for One Hundred Resolutions tab
Advertisement will be closed in 10 seconds