Song name
# A B C D E F G H I J K L M N O P Q R S T U V W X Y Z

Sundy Best - Lily chords

Highlighted       Show chord diagrams
Couldn't find anything on this song so I whipped this up really quick. Not 100%
accurate but sounds pretty close to me. Hope y'all enjoy it!

Capo 5, Standard Tuning (EADGBe)

Hammer-ons and pull-offs for the verses:

Verses:
   G                             G
E|-3----333--3----333--3----33---3----333--3----333--3----33-|
B|-3----333--3----333--3----33---3----333--3----333--3----33-|
G|-----------------------------------------------------------|
D|-----------0h2--222--2p0--00-------------0h2--222--2p0--00-|
A|-0h2--222----------------------0h2--222--------------------|
E|-3----333--3----333--3----33---3----333--3----333--3----33-|

   Cadd9                         Cadd9
E|-3----333--3----333--3----33---3----333--3----333--3----33-|
B|-3----333--3----333--3----33---3----333--3----333--3----33-|
G|-----------0h2--222--2p0--00-------------0h2--222--2p0--00-|
D|-0h2--222----------------------0h2--222--------------------|
A|-3----333--3----333--3----33---3----333--3----333--3----33-|
E|-----------------------------------------------------------|

Intro: G Cadd9 (x2)

Verse 1:
G
I never been one for cigarette smoke
Cadd9
But my nerves are shot, I need an antidote
G
My mouth is dry like the summer in the south
Cadd9
And shes sticking to her guns, and Im down and out

Chorus:
G
Goodbye Lily, Im gone for good
Cadd9
Packed up my things like I said I would
G
The road is dark and I can barely see
Cadd9
Goodbye Lily no more leaving me

G Cadd9

Verse 2:
G
Well she called me up last night at 3
Cadd9
She said it hurts like hell being left by me
G
My love for her is like aged alcohol
Cadd9
Yeah the older it grew the harder I fall

Chorus (x1)

Bridge:
D                   Em7
Well Ive tossed and Ive turned
D                   D/F#
Ive broken down but Ive learned ye-ah.

G Cadd9

Verse 3:
G
Swerved off the road trying to catch my breath
Cadd9
Cause Ive been running on fumes and running half-dead
G
Its nothing new rather old instead
Cadd9
Cause running from you is like running from death

Chorus (x1)

G
(Say goodbye, say goodbye, say goodbye say goodbye to me baby)
Baby bye
Cadd9
(Say goodbye, say goodbye, say goodbye say goodbye to me baby)
No more leaving me
G
(Say goodbye, say goodbye, say goodbye say goodbye to me baby)
Baby, baby bye
Cadd9
(Say goodbye, say goodbye, say goodbye say goodbye to me baby)
Theres no more leaving me
G
(Say goodbye, say goodbye, say goodbye say goodbye to me baby)
Cadd9
(Say goodbye, say goodbye, say goodbye say goodbye to me baby)

Outro:
G
Never been one for cigarette smoke
Cadd9
But my nerves are shot I need an antidote
Tap to rate this tab
# A B C D E F G H I J K L M N O P Q R S T U V W X Y Z