Song name
# A B C D E F G H I J K L M N O P Q R S T U V W X Y Z

Sundy Best - Smoking Gun chords

Highlighted       Show chord diagrams
Once again I'm not sure of chord names so this is what I have for "C/G","D/A", and "Esus". 
He plays with hammer-ons and pull-offs throughout the song, mostly in the intro and the outro..

Capo 2

    C/G  D/A  Esus
E|--0----0----0----
B|--1----3----0----
G|--0----0----2----
D|--2----4----2----
A|--3----5----2----
E|--3----5----0----


Intro x1
    G                      D                     Am                   Em C/G            D/A
E|--3--3--3-333-3-3-3-3-3--2--2--2-22-2-----2--------------0-0-0-0000------------------------------|
B|--1--1--1-111-1-3-1-3-3--3--3--3-33-3-----3----0h1-----0h1-1-1-1111----1--1--11-1111--33-33-3333-|
G|--0--0--0---------0h2p0--2--2--3-33-2h4p2 2p0--2-2-222 0h2-2-2-2222------------------------------|
D|--0-----------0h2------------------------------2-2-----0h2-2-2-2222----2--2--22-2222--44-44-4444-|
A|--2--2--2-222-------------------------------------------------------22-3--3--33-3333--55-55-5555-|
E|--3--3--3-333-3-3-3-3-3---------------------------------------------22-3--3--33-3333--55-55-5555-|


Verse 1
                  G                D
Well the verdicts out on this here town
          Am           Em          D       
I like to drink my inhibitions down
                G                          D
I've done all I can to deserve this thorny crown
         Am               Em C/G                     D/A
and this sorry reputation that I'll never live down


Chorus
G                                       D                    
I can't rewrite all the words that have set foot on my tongue
    Am                            Em C/G                      D/A    
And I won't tell a thousand tales of how I'm different than anyone
G                                                   D                                             
Well you can fire all your bullets until all that's left is an empty gun
      Am                        Em C/G        D/A                   
Cause I can't do one damn thing to change the roads that I've run


G D Am Em C/G D/A


Verse 2
              G                       D                  
I come from a long line of lovers and long line of saints
       Am                           Em                   D
But it skipped a generation and I'm fine with all I ain't
        G                             D                 
But the tears that I've caused dry on skin like war paint
         Am                       Em C/G              D/A
And I've never been strong enough to break my heart's restraint


Chorus x1

G D Am Em C/G D/A


Bridge 
Esus                D        G                              
There's a lot worse things I could be
         Esus           D             G                  D                                            
like if I were anything less than the wreck that's me


Chorus x1 (Third line changes to "...all that's left is a smoking gun")


G D Am Em C/G D/A x2

Play this on the second time through the above set of chords:
    G                      D                     Am                   Em C/G            D/A
E|--3--3--3-333-3-3-3-3-3--2--2--2-22-2-----2--------------0-0-0-0000------------------------------|
B|--1--1--1-111-1-3-1-3-3--3--3--3-33-3-----3----0h1-----0h1-1-1-1111----1--1--11-1111--33-33-3333-|
G|--0--0--0---------0h2p0--2--2--3-33-2h4p2 2p0--2-2-222 0h2-2-2-2222------------------------------|
D|--0-----------0h2------------------------------2-2-----0h2-2-2-2222----2--2--22-2222--44-44-4444-|
A|--2--2--2-222-------------------------------------------------------22-3--3--33-3333--55-55-5555-|
E|--3--3--3-333-3-3-3-3-3---------------------------------------------22-3--3--33-3333--55-55-5555-|
Tap to rate this tab
# A B C D E F G H I J K L M N O P Q R S T U V W X Y Z