Song name
# A B C D E F G H I J K L M N O P Q R S T U V W X Y Z

Sungha Jung - Mad World tab

hallo! this version is close to the way sungha sung plays it, but his is using a 
capo. the sound is almost the same.



e------0------------------/-----------------/
B---1-----0--1----0-------/---------------1-/
G---------------2----0----/-----------------/
D---------2----------2--4-/-----2----0------/
A---0-----------0---------/---0--------0----/
E-------------------------/-0-----0---------/

e----0-------------------/--------------------/
B-------0--1----0--1--3--/--------------------/
G------------2-----------/--------0-----------/
D-------2----------2-----/------2---4--2--0---/
A--0---------0-----------/----0-------------3-/
E------------------------/--0-----------------/


e------0------------------/-----------------/
B---1-----0--1----0-------/---------------1-/
G---------------2----0----/-----------------/
D---------2----------2--4-/-----2----0------/
A---0-----------0---------/---0--------0----/
E-------------------------/-0-----0---------/

e----0-------------------/------------/
B-------0--1----0--1--3--/------------/
G------------2-----------/--------0---/
D-------2----------2-----/------2---4-/
A--0---------0-----------/----0-------/
E------------------------/--0---------/



e-------------------0-0----0---------/----------------------------------/
B---------1-1-------1-1----1----1----/--3-3---3---0------3-3---3----1-0-/
G----2-2--0-0--2-2--0-0----0----0----/--0-0---0---0---0--2-2---2----2--2/
D----2---------2---------2---------2-/------0-------0-----------------0-/
A--0------0---------3---------3------/-----------------------0----------/
E------------------------------------/--5-------5--------0--------0-----/


e-------------------0-0----0---------/----------------------------------/
B---------1-1-------1-1----1----1----/--3-3---3---0------3-3---3----1-0-/
G----2-2--0-0--2-2--0-0----0----0----/--0-0---0---0---0--2-2---2----2--2/
D----2---------2---------2---------2-/------0-------0-----------------0-/
A--0------0---------3---------3------/-----------------------0----------/
E------------------------------------/--5-------5--------0--------0-----/


e-------------0-0--2------2-2-----/---------------0-0--2-------2-2------/
B--------1-1----------3-------3-3-/----------1-1-----------3--------3-3-/
G---2-2--0-0----------2-------2-2-/--2----2--0-0-----------2--------2-2-/
D---2---------2-------0-------0---/-----2---------2--------0--------0---/
A--0-----0--------------0---------/--0-------0-----------0---0----------/
E------------------0------0-------/--------------------0-------0--------/


e--------------0-0--2------2-2-----/---------------0-0--2-------2-2------/
B---------1-1----------3-------3-3-/----------1-1---------3-3-3------3-3-/
G--2---2--0-0----------2-------2-2-/--2----2--0-0---------2-2-2------2-2-/
D----2---------2-------0-------0---/-----2---------2--------0--------0---/
A--0------0--------------0---------/--0-------0--------------------------/
E-------------------0------0-------/--------------------0-------0--------/



e-------------------------0----------/----------------------0-------/
B----------1---------0h1----0-1------/-------------------0h1--0h1---/
G------0---0----2----------------2h0-/------0---1----2------------2-/
D----2----------0--------------------/----2-----0----0--------------/
A--0-----0----X----------------------/--0-----0----X----------------/
E-----------------0------------------/-----------------0------------/
Tap to rate this tab
 
# A B C D E F G H I J K L M N O P Q R S T U V W X Y Z