Sungha Jung - Moonriver tab

well, i find this version , but it is really nice. sorry for any mistakes. 

~ = arpez
 



 G                 Em                    C
                       ~
e-------------------/--5-----3------------/--2---------0-------/
B--3----------------/--0------------------/---------------3----/
G--------0-----0----/--0------------0-----/---------0--------5-/
D-----4-----4-----4-/-----4-----4------0--/------4-------------/
A-------------------/---------------------/--3-----------------/
E--3----------------/--0------------------/--------------------/

  Bm                Am6                  G
                     ~
e-----------------/--2--------0--------/-------------------/
B--3--------------/--1-----------3--1--/--3----------------/
G--------0-----0--/--2-----2-----------/---------0-----0---/
D-----4-----4-----/-----2--------------/------4-----4------/
A--2--------------/--0-----------------/-------------------/
E-----------------/--------------------/--3----------------/

  Am (F#)           B7          B7(F#)   Em    
                                  ~
e-----------------/-------------------/-------------------/
B--------0------1-/--0------------0---/-------------------/
G--2--------------/--------2------2---/--0--------0-----0-/
D------2-----2----/-----1-----1---1---/--------2-----2----/
A-----------------/--2----------------/-----2-------------/
E--2--------------/---------------2---/--0----------------/

 Bm7(B5)
   ~                                    ~
e-----------------/-------------------/-------------------/
B--3-----0--------/-----------0-------/--3----------------/
G--2-----------2--/--------0----------/--2-----4-----2----/
D--3--3--------0--/-----2-------------/--1--1-----1-------/
A--2--------------/--3----------------/-------------------/
E-----------3-----/--------------3--2-/--1----------------/

                                         E         Am7 
                    ~    ~    ~     ~    ~    ~
e----------------/--3----2----0--/--2----0-------/--0-----------0--/
B-------0----3---/--5----3----2--/--3----0----3--/-----------1-----/
G----------------/--0----2----0--/--2----1----4--/--------0--------/
D----2--0----1---/---------------/------------0--/-----2-----------/
A----------------/--4----2----1--/---------------/--0--------------/
E--0-------------/---------------/--2----0----4--/-----------------/

             D
             ~
e--------0---2---/
B--3---------3---/
G------------3---/
D-----4------0---/
A--5-------------/
E----------------/

  E7                   E7                 C#m7(B5)
e--------------------/------------------/--3--------3--------3-/
B--------------------/--0--------0--3s5-/--------5--------5----/
G--0---------------0-/--------0---------/-----0--------0-------/
D----------2--2s4----/-----1------------/----------------------/
A-------2------------/------------------/--4-------------------/
E----0---------------/------------------/----------------------/

  C                Em7
   ~               ~
e--5----3-------/--3---------/
B--5------------/--3---------/
G--3--3---------/--3---------/
D---------------/--2---------/
A--3------------/------------/
E---------------/------------/

  G                    Em                       G
e-------------------/--------2--0h2p0-------/-------------------/
B--3----------------/------------------3----/--3----------------/
G--------0-----0----/---------------------5-/--------0-----0----/
D-----4-----4-----4-/-----4-----------------/-----4-----4-----4-/
A-------------------/--3--------------------/--2----------------/
E--3----------------/-----------------------/-------------------/
  
   Am6                    G                    Em
         ~
e--------2--0h2p0-------/-------------------/-------------------/
B--------1---------3--1-/--3----------------/-------------------/
G--------2--------------/--------0-----0----/-----------0-----0-/
D-----2-----------------/-----4-----4-----0-/--------2-----4----/
A--0--------------------/-------------------/-----2-------------/
E-----------------------/--3----------------/--0----------------/

  Am7                     D6(F#)
e-----------------------/-----------------/
B--1--------1--------1--/--------------0--/
G--------0--------0-----/--------2--------/
D-----2--------2--------/-----0-----------/
A--0--------------------/-----------------/
E-----------------------/--2--------------/

  G                   Em                  Am7
e------------------/--------------------/-------------------/
B-------------0----/--------------------/-----------------3-/
G-------0--2-----0-/-----------0-----5--/--------5-----5----/
D----0-------------/--------2-----4-----/-----5-----5-------/
A------------------/-----2--------------/--0----------------/
E--3---------------/--0-----------------/-------------------/

  Am7                 G                    Em
e-------------------/-------------------/----------------------/
B--------------3----/--------------0----/--------------0-----5-/
G--------0--------0-/--------0--2-----0-/-----------2-----4----/
D-----4-----4-------/-----0-------------/--------2-------------/
A--5----------------/-------------------/-----2----------------/
E-------------------/--3----------------/--0-------------------/

  Am7                B7
                                 ~
e-----------------/-----------------/-------------------/
B-----------------/--0-----------0--/--------1-----0----/
G--------5-----5--/--------2-----2--/-----4-----2--2--2-/
D-----5-----5-----/-----1-----1--1--/--0-----------0----/
A--0--------------/--2--------------/-------------------/
E-----------------/--------------2--/-------------------/


e-------------------/-------------------/--------------------/
B-------------------/-------------------/--------------------/
G--------7-----7----/-------6-----6-----/--------5-----5-----/
D-----5-----5-----5-/----5-----5-----5--/-----5-----5-----5--/
A-------------------/-------------------/--------------------/
E--7----------------/--6----------------/--5-----------------/


e----------------------/--------------0-/
B----------------------/-----------3----/
G--------5-----5-----5-/--------4-------/
D-----5-----5-----5----/-----4----------/
A----------------------/----------------/
E--4-------------------/--3-------------/

Tap to rate this tab
 
# A B C D E F G H I J K L M N O P Q R S T U V W X Y Z