Sungha Jung - My Heart Will Go On tab

|----------------------------|-------5-------------0--------------7------|
|-------5---7----7---9-------|-----------9----------------7--------------|
|----------------------------|----------------9-----------6--------------|
|----------------------------|----------------------------7--------------|
|----------------------------|----------------------------0--------------|
|-----------------0----------|-------------------------------------------|



|-------5----4----0-------------|----------------------|
|-------------------------------|----------------------|
|------------------------4------|------------2---------|
|-------------------------------|----------------------|
|-------------------------------|------------0---------|
|-----------------5-------------|----------------------|



|----------------------------|-------5-------------0--------------7------|
|-------5---7----7---9-------|-----------9----------------7--------------|
|----------------------------|----------------9-----------6--------------|
|----------------------------|----------------------------7--------------|
|----------------------------|----------------------------0--------------|
|-----------------0----------|-------------------------------------------|



|-----4----7----9--------7------|-------------------------------|
|-------------------------------|-----------------7-------------|
|-------------------------------|-----------------6-------------|
|-------------------------------|-----------------7-------------|
|-------------------------------|-----------------0-------------|
|---------------5---------------|-------------------------------|




|---0-------------0---0--------0----------|--------0----------------0------|
|-----------------------------------------|---4----------------------------|
|---2-------------------------------------|---2----------------2-----------|
|---4---------4-----------4---------0-----|----------------2------------0--|
|--------0--------------------------------|---0--------0-------------------|
|---0-------------------------------------|--------------------------------|



|---------0-----------------2----|-----4------------5---4------2-----------|
|---4----------------------------|-----5-----------------------4-----------|
|----------------------0---------|-----4-----------------------0-----------|
|------------------0-------------|-----------0-------------------------0---|
|--------------------------------|-----0-----------------------0-----------|
|---5----------5-----------------|-----------------------------------------|




|---0-------------0---0--------0----------|--------0----------------0------|
|-----------------------------------------|---4----------------------------|
|---2-------------------------------------|---2----------------2-----------|
|---4---------4-----------4---------0-----|----------------2------------0--|
|--------0--------------------------------|---0--------0-------------------|
|---0-------------------------------------|--------------------------------|



|------------------------------0----|---------------0---2----0-2-0-----0---|
|--0-----------------------0--------|-------0-----------------------4------|
|--------------0-------0------------|---4-------4--------------------------|
|----------0-------4----------------|--------------------------------------|
|------2----------------------------|-------------------0------------------|
|--5--------------------------------|---5----------------------------------|



Skipped to Measure 21:

|--0-----------0---0-------0-------|-----------0------------------0---------|
|----------------------------------|----4-----------------------------------|
|----------4-----------------------|----4-------------------2---------------|
|------4---------------4-------0---|--------------------2---------------0---|
|--2-------------------------------|----0-----------0-----------------------|
|----------------------------------|----------------------------------------|



|-----------------------------------0---|--------0---------4------------0---|
|---0---------------------------0-------|-------------7--------7------------|
|-------------------0-------0-----------|---6-------------------------------|
|--------------0--------4---------------|--------------------------0--------|
|---------2-----------------------------|---0--------------0----------------|
|---5-----------------------------------|-----------------------------------|



|---------------0-----------------|----2------------------------------------|
|---------------0---------0-------|----4------------4------------0----------|
|---------4-----4-----------------|----4-------4----2-----------------------|
|------4--------4-----4-------0---|--------2--------------2------------0----|
|---2-----------2-----------------|----0------------0-----------------------|
|---------------------------------|-----------------------------------------|



|-----7--------------5-------------------------|
|-----5---------------------------9----7-------|
|----------------------------------------------|
|--------------5-----------5-------------------|
|----------------------------------------------|
|-----5----------------------------------------|



|-------------------4-----5--------|---4----------------2-------------------|
|--------------0-------------------|-----------2-----------------5----------|
|----------6-----------------------|----------------------------------------|
|------7----------------------0----|-------4-------4---------4--------0-----|
|---0---------------0--------------|---2------------------------------------|
|----------------------------------|----------------------------------------|



|---------0------------------0--------|---------------------------------0---|
|---4---------------------------------|----0------------------------0-------|
|---4--------------------2------------|-----------------0-------0-----------|
|-------------------2-------------0---|-------------0-------4---------------|
|---0----------0----------------------|---------2---------------------------|
|-------------------------------------|----5--------------------------------|


Skipped to Measure 36:

|-------------------4-----5--------|---4----------------2-------------------|
|--------------0-------------------|-----------2-----------------5----------|
|----------6-----------------------|----------------------------------------|
|------7----------------------0----|-------4-------4---------4--------0-----|
|---0---------------0--------------|---2------------------------------------|
|----------------------------------|----------------------------------------|



|---------0------------------0---------|---------0--------------------2-----|
|---4----------------------------------|---4--------------------------------|
|-----------------------2--------------|-----------------------0------------|
|-------------------4-------------0----|-------------------0----------------|
|--------------------------------------|------------------------------------|
|---4----------4-----------------------|---5-----------5--------------------|



|----4--------------5---4------2-------0----|----0----------5------------0--|
|----5-------------------------4------------|-------------------9-----------|
|----4-------------------------0------------|-----------------------9-------|
|------------0------------------------------|-------------------------------|
|----0-------------------------0------------|-------------------------------|
|-------------------------------------------|----9--------------------------|



Slide to 4th. fret...

|-----2------------------------------2-------------------------|
|-----------------------------0-------------------------0------|
|--------------------0---------------------------0-------------|
|------------2-----------------------------2-------------------|
|-----0------------------------------0-------------------------|
|--------------------------------------------------------------|



Skipped to Measure 77:

|---4----------------2-------------------|--------0-------------------------|
|-----------2-------------------5--------|---4---------------------4--------|
|----------------------------------------|---------------------2------------|
|-------4-------4----------4---------0---|-----------------4-------------0--|
|---2------------------------------------|----------------------------------|
|----------------------------------------|---4---------4--------------------|


Not done yet.....sorry!
Tap to rate this tab
 
# A B C D E F G H I J K L M N O P Q R S T U V W X Y Z