Song name
# A B C D E F G H I J K L M N O P Q R S T U V W X Y Z

Sungha Jung - Moonriver tab

This is the version of moon river that Sungha Jung plays.
Adapted from hellenic's tab, many thanks!

Enjoy!

Yair Morgenstern (Yairm210)


e--------------/-------------/--------------/--------------/
B----------0-3-/---------0---/-------0-1-0--/-----1-0------/
D------0-2-----/-----0-2---0-/-----2--------/---2-----2----/
D----0---------/---0---------/---2----------/-0------------/
A--------------/-------------/-0------------/--------------/
E--3-----------/-0-----------/--------------/--------------/


 G                 Em                    C
I                       ~
e-------------------/--5-----3------------/--2---------0-------/
B--3----------------/--0------------------/---------------3--1-/
G--------0-----0----/--0------------0-----/---------0----------/
D-----4-----4-----4-/-----4-----4------0--/------4-------------/
A-------------------/---------------------/--3-----------------/
E--3----------------/--0------------------/--------------------/

  Bm                Am6                  G
                     ~
e-----------------/--2--------0--------/-------------------/
B--3--------------/--1-----------3--1--/--3----------------/
G--------0-----0--/--2-----2-----------/---------0-----0---/
D-----4-----4-----/-----2--------------/------4-----4------/
A--2--------------/--0-----------------/-------------------/
E-----------------/--------------------/--3----------------/

  Am (F#)           B7          B7(F#)   Em    
                                  ~
e-----------------/-------------------/*------------------/	
B--------0------1-/--0------------0---/-------------------/
G--2--------------/--------2------2---/--0--------0-----0-/
D------2-----2----/-----1-----1---1---/--------2-----2----/
A-----------------/--2----------------/-----2-------------/
E--2--------------/---------------2---/--0----------------/

 Bm7(B5)
   ~                                    ~
e-----------------/-------------------/-------------------/
B--3-----0--------/-------------------/--3----------------/
G--2-----------2--/--0--------0-------/--2-----4-----2----/
D--3--3--------0--/--------2----------/--1--1-----1-------/
A--2--------------/--3--3-------------/-------------------/
E-----------3-----/--------------3--2-/--1----------------/

                                         E         Am7 
                    ~    ~    ~     ~    ~    ~
e----------------/--3----2----0--/--2----0-------/--0-----------0--/
B-------0----3---/--5----3----2--/--3----0----3--/-----------1-----/
G----------------/--0----2----0--/--2----1----4--/--------0--------/
D----2--0----1---/---------------/------------0--/-----2-----------/
A----------------/--4----2----1--/---------------/--0--------------/
E--0-------------/---------------/--2----0----4--/-----------------/

             D
             ~
e--------0---2---/
B--3---------3---/
G------------2---/
D-----4------0---/
A--5-------------/
E----------------/	first time: to I

I                       ~
e-------------------/--5-----3------------/--2---------0-------/
B--3----------------/--0------------------/---------------3--1-/
G--------0-----0----/--0------------0-----/---------0----------/
D-----4-----4-----4-/-----4-----4------0--/------4-------------/
A-------------------/---------------------/--3-----------------/
E--3----------------/--0------------------/--------------------/

  Bm                Am6                  G
                     ~
e-----------------/--2--------0--------/-------------------/
B--3--------------/--1-----------3--1--/--3----------------/
G--------0-----0--/--2-----2-----------/---------0-----0---/
D-----4-----4-----/-----2--------------/------4-----4------/
A--2--------------/--0-----------------/-------------------/
E-----------------/--------------------/--3----------------/

  Am (F#)           B7          B7(F#)    
                                  ~
e-----------------/-------------------/
B--------0------1-/--0------------0---/
G--2--------------/--------2------2---/
D------2-----2----/-----1-----1---1---/
A-----------------/--2----------------/
E--2--------------/---------------2---/

II
  E7                   E7                 C#m7(B5)
e--------------------/------------------/--3--------3--------3-/
B--------------------/--0--------0--3s5-/--------5--------5----/
G--0---------------0-/--------0---------/-----0--------0-------/
D----------2--2s4----/-----1------------/----------------------/
A-------2------------/------------------/--4-------------------/
E----0---------------/------------------/----------------------/

  C                Em7
   ~               ~
e--5----3-------/--3---------/
B--5------------/--3---------/
G--3--3---------/--3---------/
D---------------/--2---------/
A--3------------/------------/
E---------------/------------/

  G                    Em                       G
e-------------------/--------2--0h2p0-------/-------------------/
B--3----------------/------------------3--1-/--3----------------/
G--------0-----0----/-----------------------/--------0-----0----/
D-----4-----4-----4-/-----4-----------------/-----4-----4-----4-/
A-------------------/--3--------------------/--2----------------/
E--3----------------/-----------------------/-------------------/
  
   Am6                    G                    Em
         ~
e--------2--0h2p0-------/-------------------/----------------/
B--------1---------3--1-/--3----------------/----------------/
G--------2--------------/--------0-----0---0/--------------0-/
D-----2-----------------/-----4-----4----4--/--------2--4----/
A--0--------------------/-------------------/-----2----------/
E-----------------------/--3----------------/--0-------------/

  Am7                     D6(F#)
e--------------0---/-----------------/
B--1--------1------/-----------0-----/
G--------0---------/--------2-----0--/
D-----2------------/-----0-----------/
A--0---------------/-----------------/
E------------------/--2--------------/

  G                   Em                  Am7
e------------------/--------------------/-------------------/
B-------------0----/--------------------/-----------0-----3-/
G-------0--2-----0-/--------------0--5--/--------5-----5----/
D----0-------------/--------2--4--------/-----5-------------/
A------------------/-----2--------------/--0----------------/
E--3---------------/--0-----------------/-------------------/

  Am7                 G                    Em
e-------------------/-------------------/--------------------/
B--------------3----/--------------0----/--------------------/
G--------0--------0-/--------0--2-----0-/--------------0--5--/
D-----4-----4-------/-----0-------------/--------2--4--------/
A--5----------------/-------------------/-----2--------------/
E-------------------/--3----------------/--0-----------------/

				 ~
e-----------------/-------------------/-------------------/
B--------0-----0--/-0------------0----/-------------------/
G------5----5-----/-------2------2----/--0--------0-----0-/
D----5------------/----1-----1---1----/--------2-----2----/
A--0--------------/-2-----------------/-----2-------------/
E-----------------/--------------2----/--0----------------/



 Bm7(B5)
   ~                                    ~
e-----------------/-------------------/-------------------/
B--3-----0--------/-------------------/--3----------------/
G--2-----------2--/--0--------0-------/--2-----4-----2----/
D--3--3--------0--/--------2----------/--1--1-----1-------/
A--2--------------/--3--3-------------/-------------------/
E-----------3-----/--------------3--2-/--1----------------/

                                         E         Am7 
                    ~    ~    ~     ~    ~    ~
e----------------/--3----2----0--/--2----0-------/--0-----------0--/
B-------0----3---/--5----3----2--/--3----0----3--/-----------1-----/
G----------------/--0----2----0--/--2----1----4--/--------0--------/
D----2--0----1---/---------------/------------0--/-----2-----------/
A----------------/--4----2----1--/---------------/--0--------------/
E--0-------------/---------------/--2----0----4--/-----------------/

             D
             ~
e--------0---2---/
B--3---------3---/
G------------2---/
D-----4------0---/
A--5-------------/
E----------------/

e-------------------/--5-----3------------/--2---------0-------/
B--3----------------/--0------------------/---------------3--1-/
G--------0-----0----/--0------------0-----/---------0----------/
D-----4-----4-----4-/-----4-----4------0--/------4-------------/
A-------------------/---------------------/--3-----------------/
E--3----------------/--0------------------/--------------------/

  Bm                Am6                  G
                     ~
e-----------------/--2--------0--------/-------------------/
B--3--------------/--1-----------3--1--/--3----------------/
G--------0-----0--/--2-----2-----------/---------0-----0---/
D-----4-----4-----/-----2--------------/------4-----4------/
A--2--------------/--0-----------------/-------------------/
E-----------------/--------------------/--3----------------/

  Am (F#)           B7          B7(F#)    
                                  ~
e-----------------/-------------------/
B--------0------1-/--0------------0---/
G--2--------------/--------2------2---/
D------2-----2----/-----1-----1---1---/
A-----------------/--2----------------/
E--2--------------/---------------2---/

II
  E7                   E7                 C#m7(B5)
e--------------------/------------------/--3--------3--------3-/
B--------------------/--0--------0--3s5-/--------5--------5----/
G--0---------------0-/--------0---------/-----0--------0-------/
D----------2--2s4----/-----1------------/----------------------/
A-------2------------/------------------/--4-------------------/
E----0---------------/------------------/----------------------/

  C                Em7
   ~               ~
e--5----3-------/--3---------/
B--5------------/--3---------/
G--3--3---------/--3---------/
D---------------/--2---------/
A--3------------/------------/
E---------------/------------/

  G                    Em                       G
e-------------------/--------2--0h2p0-------/-------------------/
B--3----------------/------------------3--1-/--3----------------/
G--------0-----0----/-----------------------/--------0-----0----/
D-----4-----4-----4-/-----4-----------------/-----4-----4-----4-/
A-------------------/--3--------------------/--2----------------/
E--3----------------/-----------------------/-------------------/
  
   Am6                    G                    Em
         ~
e--------2--0h2p0-------/-------------------/----------------/
B--------1---------3--1-/--3----------------/----------------/
G--------2--------------/--------0-----0---0/--------------0-/
D-----2-----------------/-----4-----4----4--/--------2--4----/
A--0--------------------/-------------------/-----2----------/
E-----------------------/--3----------------/--0-------------/

  Am7                     D6(F#)
e--------------0---/--------------------/-----------/
B--1--------1------/--------1-----0-----/-----------/
G--------0---------/-----4-----2--2--0--/---------0-/
D-----2------------/--0-----------0-----/-------0---/
A--0---------------/--------------------/----2------/
E------------------/--2-----------------/-3---------/
Tap to rate this tab
 
# A B C D E F G H I J K L M N O P Q R S T U V W X Y Z