Song name
# A B C D E F G H I J K L M N O P Q R S T U V W X Y Z

Sungha Jung - Dust In The Wind tab

Title: Dust In The Wind

Artist: Sungha Jung

Arranged by: Sungha Jung

Tabbed by: Ryan R. Gonzales

Location: Rosario, Batangas - Philippines

Band: http://www.youtube.com/watch?v=dY0_cK4tskI

Tuning: e B G D A E (Standard Tuning)


Intro:

----------------|---------------|---------------|----------------|
--1-------1-----|-0-------0-----|-3-------3-----|-1-------1------|
------0-------0-|-----0-------0-|-----0-------0-|-----0-------0--|
----2-------2---|---2-------2---|---2-------2---|---2-------2----|
--3-----3-------|-3-----3-------|-3-----3-------|-3-----3--------|
----------------|---------------|---------------|----------------|

----------------|---------------|---------------|----------------|
--0-------0-----|-3-------3-----|-1-------1-----|-0-------0------|
------2-------2-|-----2-------2-|-----2-------2-|-----2-------0--|
----2-------2---|---2-------2---|---2-------2---|---2-------2----|
--0-----0-------|-0-----0-------|-0-----0-------|-0-----0--------|
----------------|---------------|---------------|----------------|

----------------|---------------|---------------|----------------|
--3-------3-----|-1-------1-----|-0-------0-----|-3-------3------|
------0-------0-|-----0-------0-|-----0-------0-|-----0-------0--|
----2-------2---|---2-------2---|---2-------2---|---2-------2----|
--3-----3-------|-3-----3-------|-3-----3-------|-3-----3--------|
----------------|---------------|---------------|----------------|

----------------|---------------|---------------|------------|
--1-------1-----|-0-------0-----|-3-------3-----|-1-------0--|
------2-------2-|-----2-------2-|-----2-------2-|-----2---0--|
----2-------2---|---2-------2---|---2-------2---|---2--------|
--0-----0-------|-0-----0-------|-0-----0-------|-0-----0-2--|
----------------|---------------|---------------|------------|

Verse:

----------------|---------------|-0-------------|----------------|
--1-------1-----|-3-------3-----|---------1-----|-1-------1------|
--0---0-------0-|-----0-------0-|-----2-------2-|-----2-------0--|
----2-------2---|---0-------0---|---2-------2---|---2-------2----|
--3-----3-------|-2-----2-------|-0-----0-------|-0-----0--------|
----------------|---------------|---------------|----------------|

--3---3---3-----|-3-1---0---|-----0---------|------------|
--------------3-|---------3-|-3-------1-----|-1-----1-3--|
----0-------0---|-----2---2-|-------------2-|-----2---0--|
----------------|-0-----0---|---2---2---2---|---2--------|
----------------|-----------|-0-------------|-0-----0-2--|
--3-----3-------|-----------|---------------|------------|

----------------|---------------|-0-------------|----------------|
--1-------1-----|-3-------3-----|---------1-----|-1-------1------|
--0---0-------0-|-----0-------0-|-----2-------2-|-----2-------0--|
----2-------2---|---0-------0---|---2-------2---|---2-------2----|
--3-----3-------|-2-----2-------|-0-----0-------|-0-----0--------|
----------------|---------------|---------------|----------------|

--3---3---3-----|-3-1---0---|-----0---------|----------------|
--------------3-|---------3-|-3-------1-----|-1-------1------|
----0-------0---|-----2---2-|-------------2-|-----2-------0--|
----------------|-0-----0---|---2---2---2---|---2-------2----|
----------------|-----------|-0-------------|-0-----0--------|
--3-----3-------|-----------|---------------|----------------|

Chorus:

----------------|-----------|---------------|----------------|
--3-------3-----|-3---1---0-|---------1-----|-1-------1------|
------2-------2-|-----------|-2---2-------2-|-----2-------0--|
----0-------0---|---0-----0-|---2-------2---|---2-------2----|
----------------|-----------|-0-----0-------|----------------|
--2-----2-------|-3-----3---|---------------|-3-----3--------|

----------------|-----------|---------------|-----------|
--3---3---3-----|-3---1---0-|---------0-----|-0-h-1--3--|
--------------2-|-----------|-2---2-------2-|--------0--|
----0-------0---|---0-----0-|---2-------2---|-----------|
----------------|-----------|-0-----0-------|-0------2--|
--2-----2-------|-3-----3---|---------------|-----------|

Verse:

----------------|---------------|-0-------------|----------------|
--1-------1-----|-3-------3-----|---------1-----|-1-------1------|
--0---0-------0-|-----0-------0-|-----2-------2-|-----2-------0--|
----2-------2---|---0-------0---|---2-------2---|---2-------2----|
--3-----3-------|-2-----2-------|-0-----0-------|-0-----0--------|
----------------|---------------|---------------|----------------|

--3---3---3-----|-3-1---0---|-----0---------|------------|
--------------3-|---------3-|-3-------1-----|-1-----1-3--|
----0-------0---|-----2---2-|-------------2-|-----2---0--|
----------------|-0-----0---|---2---2---2---|---2--------|
----------------|-----------|-0-------------|-0-----0-2--|
--3-----3-------|-----------|---------------|------------|

----------------|---------------|-0-------------|----------------|
--1-------1-----|-3-------3-----|---------1-----|-1-------1------|
--0---0-------0-|-----0-------0-|-----2-------2-|-----2-------0--|
----2-------2---|---0-------0---|---2-------2---|---2-------2----|
--3-----3-------|-2-----2-------|-0-----0-------|-0-----0--------|
----------------|---------------|---------------|----------------|

--3---3---3-----|-3-1---0---|-----0---------|----------------|
--------------3-|---------3-|-3-------1-----|-1-------1------|
----0-------0---|-----2---2-|-------------2-|-----2-------0--|
----------------|-0-----0---|---2---2---2---|---2-------2----|
----------------|-----------|-0-------------|-0-----0--------|
--3-----3-------|-----------|---------------|----------------|

Chorus:

----------------|-----------|---------------|----------------|
--3-------3-----|-3---1---0-|---------1-----|-1-------1------|
------2-------2-|-----------|-2---2-------2-|-----2-------0--|
----0-------0---|---0-----0-|---2-------2---|---2-------2----|
----------------|-----------|-0-----0-------|----------------|
--2-----2-------|-3-----3---|---------------|-3-----3--------|

----------------|------------|
--3---3---3-----|-3---1---3--|
--------------2-|------------|
----0-------0---|---0-----0--|
----------------|------------|
--2-----2-------|-3-----3----|

Interlude:

--0-------------|-0---0--0---|---------------|----------------|
----------0-----|------------|---------0-----|-0-------0------|
------5-------5-|------------|-7---7-------7-|-----7-------0--|
----7-------7---|---7------7-|---5-------5---|---5-------0----|
--0-----0-------|-0-----0----|-0-----0-------|-0-----0--------|
----------------|------------|---------------|----------------|

----------------|-------3-----|-5-------------|----------------|
--6-------0-----|-0-----------|---------0-----|-0-------0------|
------5-------5-|-----5-----5-|-----5-------5-|-----5-------0--|
----3-------3---|---3-----3---|---3-------3---|---3-------0----|
--0-----0-------|-0-----0-----|-0-----0-------|-0-----0--------|
----------------|-------------|---------------|----------------|

--0-------------|----------------|
----------1-----|-0-------0------|
------2-------2-|-----2-------0--|
----2-------2---|---2-------2----|
--0-----0-------|-0-----0--------|
----------------|----------------|

--------------|-------------------|-------------|------------------|
--3-1-0---1-3-|-------0-h-1-3-----|-1-0-----0-1-|---------0-1---0--|
--------------|-0-h-2-----------0-|-----2-------|---0-h-2-----2----|
----0-------0-|-------0-------0---|---3-------3-|-3---------3------|
--------------|-------------------|-------------|------------------|
--3-----3-----|-3-----------3-----|-1-----1-----|-1----------------|

----------------|-------------------------|---------------|----------------|
--------------0-|-1-p-0-------------------|---------1-----|-0-------0------|
--2------2------|-------2-p-0-2-p-0-------|-----2-------2-|-----2-------0--|
------3-----3---|-------------------2-p-0-|-2-2-------2---|---2-------2----|
----3-----------|-------------------------|-0-----0-------|-0-----0--------|
--1-----1-------|-------------------------|---------------|----------------|

--------------|-------------------|-------------|------------------|
--3-1-0---1-3-|-------0-h-1-3-----|-1-0-----0-1-|---------0-1---0--|
--------------|-0-h-2-----------0-|-----2-------|---0-h-2-----2----|
----0-------0-|-------0-------0---|---3-------3-|-3---------3------|
--------------|-------------------|-------------|------------------|
--3-----3-----|-3-----------3-----|-1-----1-----|-1----------------|

----------------|-----------------0---|-3-------------|----------------|
--------------0-|-1-p-0---0-1-h-3---6-|---------5-----|-5-------5------|
--2------2------|-------2-------------|-----5-------5-|-----5-------5--|
------3-----3---|---------------------|---5-------5---|---5-------5----|
----3-----------|---------------------|-3-----3-------|-3-----3--------|
--1-----1-------|---------------------|---------------|----------------|

--3-h-5-3---3---------------------------------|---------------|----------------|
----------6---6-s-5-p-3-5-p-3-5-p-3---3-------|---------1-----|-0-------0------|
------------------------------------5---5-s-3-|-----2-------2-|-----2-------0--|
----------------------------------------------|-2-2-------2---|---2-------2----|
--3-------------------------------------------|-0-----0-------|-0-----0--------|
----------------------------------------------|---------------|----------------|

----------------------|-------0-------0---5--|
----0-h-1---0-h-1---0-|-1-h-3---1-h-3---6----|
--2-------2-------2---|----------------------|
----------2-----------|----------------------|
--0-------------------|-0--------------------|
----------------------|----------------------|

--3-------------|----------------|
----------5-----|-5-------5------|
------5-------5-|-----5-------5--|
----5-------5---|---5-------5----|
--3-----3-------|-3-----3--------|
----------------|----------------|

--3-h-5-3---3----------------------------------|
----------6---6-s-5-p-3-5-p-3-5-p-3---3--------|
------------------------------------5---5-s-3--|
-----------------------------------------------|
--3--------------------------------------------|
-----------------------------------------------|

----------------|---------------|---------------|------------|
----------1-----|-0-------0-----|-3-------3-----|-1-------3--|
--2---2-------2-|-----2-------2-|-----2-------2-|-----2---0--|
----2-------2---|---2-------2---|---2-------2---|---2--------|
--0-----0-------|-0-----0-------|-0-----0-------|-0-----0-2--|
----------------|---------------|---------------|------------|

Verse:

----------------|---------------|-0-------------|----------------|
--1-------1-----|-3-------3-----|---------1-----|-1-------1------|
--0---0-------0-|-----0-------0-|-----2-------2-|-----2-------0--|
----2-------2---|---0-------0---|---2-------2---|---2-------0----|
--3-----3-------|-2-----2-------|-0-----0-------|-0-----0--------|
----------------|---------------|---------------|----------------|

--3---3---3-s-5---|-3-1---0---|---1-p-0---------|------------|
----------------3-|---------3-|-3-------------1-|-------1-3--|
----0---------0---|-----2---2-|-----------2-----|-----2---0--|
------------------|-0-----0---|---2---------2---|---2--------|
------------------|-----------|-0-------0-------|-0-----0-2--|
--3-----3---------|-----------|-----------------|------------|

----------------|-0-------------|-0---------------|----------------|
--1-------1-----|-----3---------|---3-p-1-------1-|---------1------|
--0---0-------0-|---------0---0-|-----------2-----|-----2-------0--|
----2-------2---|---0-------0---|---2---------2---|---2-------0----|
--3-----3-------|-2-----2-------|-0-------0-------|-0-----0--------|
----------------|---------------|-----------------|----------------|

--3---3---3-s-5---|-3-1---0---|-----0-------3-s-5-|------------|
----------------3-|---------3-|-3---1-------------|------------|
----0---------0---|-----2---2-|---------2---------|---2---2----|
------------------|-0-----0---|---2---2---2-------|-2-------0--|
------------------|-----------|-0---------------0-|-----0------|
--3-----3---------|-----------|-------------------|------------|

Chorus:

----------------|-----------|-0-------------|----------------|
--3---3---3-----|-3---1---0-|---------1-----|-1-------1------|
--------------2-|-----------|-----2-------2-|-----2-------0--|
----0-------0---|---0-----0-|---2-------2---|---2-------2----|
----------------|-----------|-0-----0-------|----------------|
--2-----2-------|-3-----3---|---------------|-3-----3--------|

----------------|-----0-1-|-0-------------|----------------|
--3-------3-----|-3-------|---------1-----|-1-------1------|
------2-------2-|---0---0-|-----2-------2-|-----2-------0--|
----0-------0---|---------|---2-------2---|---2-------2----|
----------------|---------|-0-----0-------|----------------|
--2-----2-------|-3-------|---------------|-3-----3--------|

----------------|-----------|-0-------------|----------------|
--3-------3-----|-3---1---0-|---------1-----|-1-------1------|
------2-------2-|-----------|-----2-------2-|-----2-------0--|
----0-------0---|---0-----0-|---2-------2---|---2-------2----|
----------------|-----------|-0-----0-------|----------------|
--2-----2-------|-3-----3---|---------------|-3-----3--------|

----------------|------------|
--3---3---3-----|-3----------|
--------------2-|-----0---0--|
----0-------0---|---0---2----|
----------------|------------|
--2-----2-------|-3----------|

Outro:

----------------|---------------|---------------|----------------|
----------1-----|-0-------0-----|-3-------3-----|-1-------1------|
--2---2-------2-|-----2-------2-|-----2-------2-|-----2-------2--|
----2-------2---|---2-------2---|---2-------2---|---2-------2----|
--0-----0-------|-0-----0-------|-0-----0-------|-0-----0--------|
----------------|---------------|---------------|----------------|

----------------|---------------|---------------|----------------|
--0-------0-----|-3-------3-----|-1-------1-----|-0-------0------|
------2-------2-|-----2-------2-|-----2-------2-|-----2-------2--|
----2-------2---|---2-------2---|---2-------2---|---2-------2----|
--0-----0-------|-0-----0-------|-0-----0-------|-0-----0--------|
----------------|---------------|---------------|----------------|

----------------|---------------|---------------|----------------|
--3-------3-----|-1-------1-----|-0-------0-----|-3-------3------|
------2-------2-|-----2-------2-|-----2-------2-|-----2-------2--|
----2-------2---|---2-------2---|---2-------2---|---2-------2----|
--0-----0-------|-0-----0-------|-0-----0-------|-0-----0--------|
----------------|---------------|---------------|----------------|

----------------|---------------|---------------|----------------|
--1-------1-----|-0-------0-----|-3-------3-----|-1-------1------|
------2-------2-|-----2-------2-|-----2-------2-|-----2-------2--|
----2-------2---|---2-------2---|---2-------2---|---2-------2----|
--0-----0-------|-0-----0-------|-0-----0-------|-0-----0--------|
----------------|---------------|---------------|----------------|

----------------|---------------|---------------|----------------|
--0-------0-----|-3-------3-----|-1-------1-----|-0-------0------|
------2-------2-|-----2-------2-|-----2-------2-|-----2-------2--|
----2-------2---|---2-------2---|---2-------2---|---2-------2----|
--0-----0-------|-0-----0-------|-0-----0-------|-0-----0--------|
----------------|---------------|---------------|----------------|

----------------|---------------|---------------|-----|
--3-------3-----|-1-------1-----|-0-------0-----|-3~--|
------2-------2-|-----2-------2-|-----2-------2-|-----|
----2-------2---|---2-------2---|---2-------2---|-----|
--0-----0-------|-0-----0-------|-0-----0-------|-0~--|
----------------|---------------|---------------|-----|



Tablature Legend
----------------

h  - hammer on
s  - slide
p  - pull off
~  - let the note ring



echo "Hello World!";



Play until your fingers bleed!
Tap to rate this tab
 
# A B C D E F G H I J K L M N O P Q R S T U V W X Y Z