Sungha Jung - Mission Imposible Them tab

--------------------------------------|
--------------------------------------|
--------------------------------------|
--------------------------------------|
-------0-0---3---5-----0-0------------|
-----------------------------3-4-5----|



--------------------------------------|
--5---------5-------5-----------------|
------7--------7------7---------------|
---------7-------6------5---3--5------|
--------------------------------------|
--------------------------------------|
Tap to rate this tab
 
# A B C D E F G H I J K L M N O P Q R S T U V W X Y Z