Guitaretab - guitar tabs
Song name
# A B C D E F G H I J K L M N O P Q R S T U V W X Y Z

Sungha Jung - River Flows In You tab

This is my version of Sungha Jung's cover of Yiruma's River Flows In You.
Sorry that there are so many parts, but the order is not that hard to learn; it is 
basically chronologically ordered. NOTE: I put "v" on the some of the notes to mean 
"vibrato/let ring." Hope this helps.

Order:
(Part 1) x1
(Part 2) x1
(Part 3) x1
(Part 4) x4
(Part 5) x1
(Part 2) x1
(Part 3) x1
(Part 4) x4
(Part 5) x1
(Part 6) x1
(Part 4) x4
(Part 5) x1
(Part 2) x1
(Part 3) x1
(Part 7) x1

Simplified order (Part 4 is always played 4 times): 1,2,3,4,5,2,3,4,5,6,4,5,2,3,7.

Part 1:
E|--5--4--5--4--5--0--5------------5--4--5--4--5--0--5------|
B|-----------------------3v-----2-----------------------3v--|
G|---------------------------2------------------------------|
D|----------------------------------------------------------|
A|----------------------------------------------------------|
E|----------------------------------------------------------|

Part 2:
E|--------5--4--5--4--5--0--5-----------------------------------------------|
B|-----2-----------------------3--1/2----3--5--2--0v------------------------|
G|--2---------------------------------------------------2--1--2-----2--2/4--|
D|---------------------------------------------------------------2----------|
A|--------------------------------------------------------------------------|
E|--------------------------------------------------------------------------|

E|------------------0-----0-----------|
B|--2-----2--2/3-------------3--2--0--|
G|------------------------------------|
D|-----2---------------2--------------|
A|------------------------------------|
E|------------------------------------|
[ Tab from: http://www.guitaretab.com/s/sungha-jung/302781.html ]
Part 3:
E|--------5--4--5--4--5--0--5------------------7/9--7v--7/9--7--5--4--5--|
B|-----2-----------------------3--1/2----3--5----------------------------|
G|--2--------------------------------------------------------------------|
D|-----------------------------------------------------------------------|
A|-----------------------------------------------------------------------|
E|-----------------------------------------------------------------------|

E|---------------------------0-----0-----------|
B|-------------2-----2--2/3-----------3--2--0--|
G|-----2--2/4----------------------------------|
D|--2-------------2-------------2--------------|
A|---------------------------------------------|
E|---------------------------------------------|

Part 4:
E|---------------------------|
B|--10--10/12--10--9--10-----|
G|------------------------9--|
D|---------------------------|
A|---------------------------|
E|---------------------------| x2

E|----------------------------9--10--12--9-----------------|
B|--10--10/12--10--9--10--12----------------12--10--9v-----|
G|-----------------------------------------------------9v--|
D|---------------------------------------------------------|
A|---------------------------------------------------------|
E|---------------------------------------------------------|

Part 5:
E|----------|
B|----------|
G|--4v--1v--|
D|----------|
A|----------|
E|----------|

Part 6:
E|------5--4v--2--0--0--2------0--2----------------------------------|
B|-------------------------3v--------3v-----3--3--2--2--0--0--2--2v--|
G|--2v-----------------------------------2---------------------------|
D|-------------------------------------------------------------------|
A|-------------------------------------------------------------------|
E|-------------------------------------------------------------------|

E|--------------5--4v--2--0--0--2--2v--0-----------------------------|
B|----------------------------------------3--2--2--3--3--------------|
G|--2--1--2-------------------------------------------------2--2--1--|
D|-----------2-------------------------------------------0-----------|
A|-------------------------------------------------------------------|
E|-------------------------------------------------------------------|

Part 7:
E|---------------------2v--|
B|------------------2------|
G|--1v-----------2---------|
D|------------4------------|
A|---------4---------------|
E|------2------------------|
Related for River Flows In You tab
River Flows In You chords by Sungha Jung