Song name
# A B C D E F G H I J K L M N O P Q R S T U V W X Y Z

Sungha Jung - Payphone tab

Alright I finish this song a week ago, and many people seek to learn it. So here goes...
-YASH :)))
Tuning : Highest To Lowest: D A F# D A D   WITH CAPO : 2nd fret
Intro

E--------------0---2------9--------7~----7----------------0--------|
B-----------4-------------9-----9--9~---------11pulloff7-----------|
G------------------------------------------------------------------|
D------------------------------------------------------------------|
A------------------------------------------------------------------|
E-----------------------------0---------------------------------0--|



E------------------------------------0--------------------------------------|
B----------------5~----5 p 4p 0------------------4----2----------2h4-----2--|
G----------------3~----------------------------------------3----------------|
D----------2-----------------------------------------------4----------------|
A---------------------------------------------------------------------------|
E--------------------------------------------4------------------------------|


E---------------------------------------------------------------------------------------|
B----------------------------------------0---0~-----------------------------------------|
G-----------------2~--------------------------------------------------------------------|
D-------------2-------------------------------------------------------------------------|
A---------------------------------------------------------------------------------------|
E----------2----------------------------------------------------------------------------|



X2. (maybe some other time) I will continue finishing this tab ( Ihave classes ) LOL
Tap to rate this tab
 
# A B C D E F G H I J K L M N O P Q R S T U V W X Y Z