Song name
# A B C D E F G H I J K L M N O P Q R S T U V W X Y Z

Sungha Jung - My Immortal tab

MY IMMORTAL TAB By sungha jung (tabbed by Roland Ramos jr.)

CAPO 2ND FRET

INTRO

1                           2
e|---------3-----5-----3-----|----------------7-------|
b|------3-----3-----3-----3--|---------7--------------|
g|---------------------------|------7-----7-----------|
d|---------------------------|------------------------| played 2x
A|---------------------------|------------------------|
E|--3------------------------|--7~--------------------|

 3                                       4
e|--------------------------------|---------------------------|
b|--------------------------------|---------------------------|
g|------0--0-----0--------0-------|-------4-----------4-------|
d|---------0--0--------------0----|---4-----------4-----------|
A|---------------------2--------2-|--(2)------2---------------|
E|--3---------------3-------------|---------------------------|
I'm so tired of being here

 5                                            6
e|----------------------------------|-------------------------|
b|----------------------------------|-------------------------|
g|-----0---0------0--------0--------|-----4-----54~2---------|
d|-----0-------0--------------0-----|--4---------------5~-----|
A|--------(2)-----------2--------(2)|--2-----2----------------|
E|--3----------------3--------------|-------------------------|
Suppressed by all my childish fears

7                                      8
e|---------------------------|----------------------------------|
b|----(3)--3-1~0------------|---(3)--3-------------------------|
g|---------0------------0----|----4------5L4-----2--45L4-------|
d|-----0-------------0-------|----------------------------------|
A|---------------------------|--2-----------~2------------------|
E|--3-------------3----------|----------------------------------|
And if you have to leave    I wish that you would just leave


9                                                                             10
e|------------------------------------------|----------------------2~3--3-|
b|-----(3)--3-1~~0-------------------------|-----3--3--3--3--------------|
g|----------0--------------0----------------|-------------------4---------|
d|------0---------------0-----0-------------|-----4-----------4-----------|
A|------------------------------------------|--2-----------2--------------|
E|--3----------------3----------------------|-----------------------------|
Cause your presence still lingers here  And it won't leave me alone

11                                           12
e|----------------2--2--2--2-2L3-3|--------------2--2--2--22L3--|
b|---------0------------3--3--3----|--------3-----------3--3--3---|
g|-------0-----0-------------------|------0----0------------------|
d|----2----------------------------|----2-------------------------|
A|----------------------2----------|--------------------2---------|
E|--0------------------------------|--0---------------------------|
These wounds won't seem to heal  This pain is just too real


13                              `       14   ↑
e|-----------3-----2--2--2--2--22-|---2--2--2--3------5--5--3-|
b|-----------------------3--3--3---|---3--3--3--3------3-----0-|
g|--------0-----0--------------0---|---------------------------|
d|-----2---------------------------|---0------------0----------|
A|-----------------------2-----x---|---------------------------|
E|--0--------------------------x---|---------------------------|
There's just too much that time cannot erase

CHORUS :
15                                            16
e|-----------3---2---3--3-------|--5--3-3-2---3--2-----2p0----|
b|-----------0---3---3--3-----0-|--3--3-3-3---3--2--3---------|
g|--------0------0------0--0----|-----------------------------|
d|-----2-------------------0----|--0--------------------------|
A|---------------3------x--x----|---------2-------------------|
E|--0-------------------x--x----|-----------------------------|
When you cried I'd wipe away all of your tears

17                                             18
e|-----------3---2---3----3L5---|--5--3-3-2---3--2-----2p0----|
b|-----------0---3---3----3-----|--3--3-3-3---3--3--3---------|
g|--------0------0------0-------|-----------------------------|
d|-----2------------------------|--0--------------------------|
A|---------------3--------------|---------2-------------------|
E|--0---------------------------|-----------------------------|
When you'd scream I'd fight away all of your fears

19                                             20
e|-----------3---2---3----3L5---|--5--3-3-2---3--2-----2h3----|
b|-----------0---3---3----3-----|--3--3-3-3---3--3--3--3------|
g|--------0------0------0-------|-----------------------------|
d|-----2------------------------|--0--------------------------|
A|---------------3--------------|---------2-------------------|
E|--0---------------------------|-----------------------------|
I held your hand through all of these years

21                                    22
e|-----------3---2-----3--------|--3h2~------------3h2--------|
b|-----------3---3-----3-----3--|--3------------3--3----3-----|
g|--------0------0--------0-----|-------------2------------2--|
d|-----2------------------------|--0--------------------------|
A|---------------3--------------|-----------------------------|
E|--0---------------------------|-----------------------------|
But you still have

23                     ↑                                24
e|--------2-----------3--3------|--------3-----5-----3--------|
b|--------3---------------------|-----3-----3-----3-----0-----|
g|--------2---------------------|-----------------------------|
d|---0--------------------------|-----------------------------|
A|------------------------------|-----------------------------|
E|------------------------------|--3--------------------------|
All of me


25                 26
e|---------------7-|---------3------5-----3----------|
b|---------7-------|------3-----3------3------3------|
g|-----7-------7---|---------------------------------|
d------------------|---------------------------------|
A|-----------------|---------------------------------|
E|--s7-------------|---s3----------------------------|

27                      28
e|--------------7--|----------------------------------------------|
b|---------7-------|----------------------------------------------|
g|------7-----7---|---------0------0----------0------------------|
d------------------|-----0-------0-------------------0------------|
A|-----------------|---------2-------------2--------------(2)-----|
E|--s7-------------|--3-----------------3-------------------------|
                   You used to captivate me

29                           30
e|----------------------------|------------------------------------|
b|----------------------------|------------------------------------|
g|------4-----2---4p2--45L4--|-----0--0-----0---------0-----------|
d|--4-------------------------|-----0-----0----------------0-------|
A|--2------2------------------|--------2------------2----------(2)-|
E|----------------------------|--3---------------3-----------------|
By your resonating light        Now I'm bound by the life

31                  32
e|----------------------|--------------------------------------|
b|----------------------|-----3--3--1~0----------0-------------|
g|------4--4--54p2-----|--------0--0----------------0---------|
d|--4----------------5~-|-----0---------------0----------0-----|
A|--2-------------------|--------------------------------------|
E|----------------------|--3--------------3--------------------|
you left behind         Your face it haunts
33                      34
e|------------------------|-----------------------------------|
b|-----3--3---------------|------3--3--1--0---------0---------|
g|-----4------5L4-----24-|---------0------------0---------0--|
d|----------------~2------|------0------------0---------0-----|
A|--2---------------------|-----------------------------------|
E|------------------------|--3------------3-------------------|
My once pleasant dreams   Your voice it chased away

35                                36
e|-------------------------2h3--3-|-----------------2--2--2--2--2h3--3---|
b|------3-----3---3--------3------|-----------0-----------3--3--3--------|
g|---------4--4---4-----4---------|--------0-----0-----------------------|
d|------4------------4------------|-----2--------------------------------|
A|--2-------------2---------------|---------------------2----------------|
E|--------------------------------|--0-----------------------------------|
All the sanity in me            These wounds won't seem to heal

37                                           38
e|------------------2--2--2--22h3--3-|---------------2-2--2--2--2--2---|
b|-----------3------------3--3--3-----|---------3-----------3--3--3------|
g|--------0------0--------------------|-------0-----0--------------------|
d|-----2------------------------------|-----2----------------------------|
A|------------------------2-----------|---------------------2-----x------|
E|--0---------------------------------|--0------------------------x------|
This pain is just too real                      There's just too much


39  ↑                               40
e|--2---2--2--3-----5----3-|-----------3--2-------3---3------------|
b|--3---3--3--3-----3------|-----------0--3-------3---3------------|
g|---------2---------------|--------0-----0-----------0--0--0------|
d|--0------------0---------|-----2-----------------------0---------|
A|---------x---------------|--------------3-----------x--x---------|
E|---------x---------------|--0-----------------------x--x---------|
that time cannot erase      When you cried I'd

41                                         42
e|--5----3--3---2-----3--2-----2p0-|-----------3---2----3-------3L5-------|
b|--3----3--3---3-----3--3--3------|-----------0---3----3-------3---------|
g|---------------------------------|--------0------0--------0-------------|
d|---------------------------------|-----2------------------0-------------|
A|--0-----------2------------------|---------------3--------x-------------|
E|---------------------------------|--0---------------------x-------------|
I'd wipe away all of your tears  When you'd scream, I'd

43                                        44
e|--5----3--3---2-----3--2----2p0--|-----------3---2----3---3---3----------|
b|--3----3--3---3-----3--3--3------|-----------0---3----3---3---3----------|
g|---------------------------------|--------0------0--------0---0-0-------|
d|--0------------------------------|-----2---------------------------------|
A|--------------2------------------|---------------3--------x---x----------|
E|---------------------------------|--0---------------------x---x----------|
fight away all of your fears     I held your

45                                         46                         ↑
e|--5----3--3---2-----3--2----2h3--|-----------3---2----3---3--------------|
b|--3----3--3---3-----3--3--3-3----|-----------3---3----3---3--------------|
g|---------------------------------|--------0------0--------0---(0)--------|
d|--0------------------------------|-----2------------------0--------------|
A|--------------2------------------|---------------3-----------------------|
E|---------------------------------|--0------------------------------------|
hand through all of these years         But you still

47                                         48
e|--3p2~----------------3p2--------|--------------2----------3--3------|
b|--3----------------3-------3-----|--------------3--------------------|
g|----------------2-------------2--|--------------2--------------------|
d|--0------------------------------|--0--------------------------------|
A|---------------------------------|-----------------------------------|
E|---------------------------------|-----------------------------------|
Have                                     All of me

CHORUS
49                                                       50
e|--3--------------------------2--2--2--0------|--2---------3--3---3--3-----3L5--5---|
b|--0---------1--1-----3---3---3--3--3--3-(3)-|--3---------3--3---3--3--3--3---(0)-0|
g|--0---------0--0-----0---0------0--0(0)-(0)-|--------(0)-----------0(0)-----(0)-0|
d|--------0---------0-------------0------------|-----(0)-----------------------------|
A|--3---------3--x-----3-----------------------|--2--------(2)-2-----------------x---|
E|-----x---------x-----------------------------|---------------------------------x---|
I've tried so hard to                           tell my







51                                                52
e|--5---5--5--5--3-----3--3(3)--2-------|--2p0--0--3--0---0--0--0-----2-----|
b|--0---0--0--0--0-----0--0(0)--3---3---|--3----3-3--3---3--3--3--3--0-----|
g|------0--0--0--------0--0------0---0-0-|--0----0-----0---0-----0-----0-----|
d|-------------------------------0-------|--x----------x---------x-----------|
A|---------------------------------------|--3----------3---------------------|
E|--0------------------------------------|-----------------------------------|
self that you're                        gone                   but

53                                          54
e|--3--------3-----3L7--7-----7--5--|--5-----5-------5p3(3)---------3--2----|
b|--1--------1-----1----5-----5--0--|--0-----0-------0---(0)-(0)-----0--0----|
g|------(0)--0--0----------5--5-----|-----0--0---(0)-0---(0)-(0)-(0)-0-------|
d|------(2)----------------5--5-----|-----x-----------------------x----------|
A|--0--------------0----0-----------|-----2----x-----------------(2)-x-------|
E|----------------------------------|--0-------x-----0---------------x-------|
But though you're still                 with me

55                                   ↑   56
e|--3--3--3-3L5--5----5--5--5--3--|--5L7~----7--7------5----5--5--5--3---3---------|
b|--3--3--3--3---------0--0--0--3--|----------5--5------3----3--3--3--0---0---------|
g|--0--0---------------0--0-----0--|-------------5-----------2--2-----0---0---------|
d|------------------------------x--|--0----0--------(0)-0-------------0---0---------|
A|--3-------------3-------------3--|------------------------------------------------|
E|---------------------------------|------------------------------------------------|
I've    been                  a    lone         all             along
STRUMMING PART!
57                                           58
e|--3---3(3)-3-----3--3--3--3-----3-|---3---3--3(3)-3----3---3--3--3--3--3----|
b|--3---3(3)-3-----3--3--3--3(3)-3-|---3---3--3(3)-3----3---3--3--3--3--3----|
g|--0---0(0)-0-----0--0--0--0(0)-0-|---2---2--2(2)-0----0---0--0--0--0--0----|
d|--2---2-----2-----2-----2--2(2)---|---0---0--------0----0------0-------------|
A|--2---------3-----------3----------|--(0)-----------2-------------------------|
E|--0--------------------------------|------------------------------------------|

59                                         60
e|--3---3(3)-3----3--3--3--3-----3-|---3----3--3(3)--3----3---3--3--3--3--|
b|--3---3(3)-3----3--3--3--3(3)-3-|---3----3--3-(3)--3----3---3--3--3--3--|
g|--0---0(0)-0----0--0--0--0(0)-0-|---2----2--2(2)--0----0---0--0--0--0--|
d|--2---2-----2----2-----2--2(2)---|---0----0---------0----0------0--------|
A|--2---------3----------3----------|--(0)-------------2--------------------|
E|--0-------------------------------|---------------------------------------|

61                                           62
e|------------3---2------3---3--------|--5-----3--3--2----3---2-----2p0----|
b|---------3--3---3------3---3--------|--3-----3--3--3----3---3-----3------|
g|---------0--0---0----------0---0--0-|--------------------------0---------|
d|-------------------------------0----|--0---------------------------------|
A|------------x---3----------x---x----|--------------2--------x------------|
E|--0---0-----x--------------x---x----|-----------------------x------------|

63                                           64
e|------------3---2------3---3--3L5--|--5----3--3--2------3--2-----2p0--|
b|------------0---3------3---3----3---|--3----3--3--3------3--3--3-------|
g|---------0------0----------0--------|-----------------------0----------|
d|------2-----------------------------|--0-------------------------------|
A|----------------3----------x--------|-------------2--------------------|
E|--0------------------------x--------|----------------------------------|

65                                      66
e|------------3--2-----3--3-3-----|--5----3--3--2------3--2-----2h3--|
b|------------0--3-----3--3--3-----|--3----3--3--3------3--3--3--3----|
g|---------0-----0--------0--0--0--|-----------------------0----------|
d|------2--------------------------|--0-------------------------------|
A|---------------3--------x--x-----|-------------2---------x----------|
E|--0---------------------x--x-----|-----------------------x----------|

67                                       68
e|------------3--2-----3-----3-----|--3p2~---------------3p2--------|
b|------------3--3-----3-----3-----|--3----------------3------3-----|
g|---------------0-----------0(0)-|---------(2)----2------------2--|
d|------2--2-----------------0-----|--0-----------------------------|
A|---------------3-----------------|--------------------------------|
E|--0------------------------------|--------------------------------|

69               ↑                     70
e|---------------2------3---3--|---------3-------5-------3-------|
b|---------------3-------------|-----3-------3-------3-------3---|
g|---------------2-------------|---------------------------------|
d|---0-------------------------|---------------------------------|
A|-----------------------------|---------------------------------|
E|-----------------------------|--3------------------------------|
71                 72
e|-----------------7---|----------3-------5-------3------|
b|---------7-----------|------3-------3-------3------3---|
g|-----7-------7-------|---------------------------------|
d|---------------------|---------------------------------|
A|---------------------|---------------------------------|
E|--7~~~~~~~~~~~~~~~~~~|--3~~~~~~~~~~~~~~~~~~~~~~~~~~~~~~|
73                 74
e|-----------------7---|----------3-------5-------3------|
b|---------7-----------|------3-------3-------3------3---|
g|-----7-------7-------|---------------------------------|
d|---------------------|---------------------------------|
A|---------------------|---------------------------------|
E|--7~~~~~~~~~~~~~~~~~~|--3~~~~~~~~~~~~~~~~~~~~~~~~~~~~~~|
75                 76
e|-----------------7---|----------3-------5-------3------|
b|---------7-----------|------3-------3-------3------3---|
g|-----7-------7-------|---------------------------------|
d|---------------------|---------------------------------|
A|---------------------|---------------------------------|
E|--7~~~~~~~~~~~~~~~~~~|--3~~~~~~~~~~~~~~~~~~~~~~~~~~~~~~|
77                 78
e|-----------------7---|---------------------------------|
b|---------7-----------|---------------------------------|
g|-----7-------7-------|---------------------------------|
d|---------------------|--0------------------------------|
A|---------------------|--2------------------------------|
E|--7~~~~~~~~~~~~~~~~~~|--3------------------------------|
if you have comments or correction just pm me on facebook jhayr0506 or email me @ 
roland_MPC@yahoo.com . 2nd time on writing tabs . play like a pro ENJOY GUYS ^_^ !
Tap to rate this tab
 
# A B C D E F G H I J K L M N O P Q R S T U V W X Y Z