Song name
# A B C D E F G H I J K L M N O P Q R S T U V W X Y Z

Sungha Jung - The Milky Way tab

Title: The Milky Way
SubTitle: Tabbed by wikaman1
Artist: Sungha Jung
Tempo = 95
Steel Guitar

Legend
L - tied note
x - dead note
h - hammer on/pull off
b - bend
s - slide
~ - vibrato
g - ghost note
> - accentuated note
t - trill
M - palm mute
. - staccato
P - popping (bass)
S - slapping (bass)
+ - tapping
W - wide vibrato
< - fade in
w - whammy bar
= - tremolo picking
v - brush up
^ - brush down
V - pick stroke up
n - pick stroke down

     ^                                      
D |----------------------------------------|
A |----------------------------------------|
G |--2-------------------------------------|
D |--0--------0--------4-------------------|
G |-----------------------------0-----0----|
D |--0-----0-----0-----0-----0-----0-------|

                                         
----------------------------------------|
----------------------------------------|
----------------------------------------|
--4h-2-----0-----------------0-----0----|
--------------------2s-4----------------|
--0-----0-----0-----0-----0-----0-------|

                    ^                    
-----------------------------0----------|
-----------0--------0-------------------|
--------0-----------6-------------------|
--------------------0--------------0----|
----------------------------------------|
--5-----------5-----5-----5-----5-------|

                                         
----------------------------------------|
----------------------------------------|
--4-----------------4h-2-----0----------|
-----------0-----0----------------------|
----------------------------------------|
--5-----5-----5-----5-----5-----0-------|

                                         
----------------------------------------|
----------------------------------------|
-----------0-----------------0----------|
--4-----------2s----2--------------2----|
----------------------------------------|
--0-----0-----0-----0-----0-----0-------|

                                         
--------------------0--------------0----|
-----------4-----------------4----------|
----------------------------------------|
--2s-4-----------0----------------------|
----------------------------------------|
--0-----0-----0-----0-----0-----0-------|

                    ^                    
-----------------------------0----------|
-----------0--------0-------------------|
--------0-----------6-------------------|
--------------------0--------------0----|
----------------------------------------|
--5-----------5-----5-----5-----5-------|

                                         
--------------------0L-0----------------|
-----------0----------------------------|
--4-------------------------------------|
-----------------0--------------0-------|
----------------------------------------|
--5-----5-----5-------------------------|

                                         
-----------------------------0----------|
--0-----------------4--------------4----|
----------------------------------------|
-----------4-----4----------------------|
----------------------------------------|
--0-----0-----0-----0-----0-----0-------|

                                         
----------------------------------------|
----------------------------------------|
--2--------2h-0-------------------------|
-----------------0--2h-4-----2-----0----|
----------------------------------------|
--0-----0-----0-----0-----0-----0-------|

                    ^                    
-----------------------------5----------|
--------------------0-------------------|
-----------6--------4-------------------|
--------0-----------0-----------0-------|
----------------------------------------|
--5-----------5-----5-----5-------------|

                                         
--4--------2--------2h-0----------------|
--0--------0-----------------0----------|
-----------------------------------0----|
--------0-----0-----------0-----0-------|
----------------------------------------|
--5-----------------5-------------------|

                                         
----------------------------------------|
-----------4--------4--------5----------|
-----------2-----------------------2----|
--0--------------0----------------------|
----------------------------------------|
--0-----0-----0-----0-----0-----0-------|

                                         
----------------------------------------|
----------------------------------------|
-----------0----------------------------|
-----------------0--2s-4-----2h-0--0----|
----------------------------------------|
--0-----0-----0-----0-----0-----0-------|

                    ^                    
-----------------------------0----------|
-----------0--------0--------0----------|
--------0-----------6-------------------|
--------------------0--------------0----|
----------------------------------------|
--5-----------5-----5-----5-----5-------|

                                         
-----------5--------5L-5----------------|
----------------------------------------|
--4-------------------------------------|
--0--------------0--------------0-------|
----------------------------------------|
--5-----5-----5-----------------0-------|

                                         
----------------------------------------|
--0--------2--------2s-4-----5-----4h---|
--0--------------0----------------------|
--------2-----2-----------0-------------|
----------------------------------------|
--2-----------------------------0-------|

                                                                             
--------------------2-----------------4h-2h-0-----------0-------------------|
--5-----------------------------------------------------------4-------------|
--------------------------------0-------------------------------------------|
--------------4-----------4-----------------------4-------------------------|
----------------------------------------------------------------------------|
--4-----------------------------------4-----------------2-------------------|

                    ^                    
--0-----------------5--------5s-7-------|
-----------0--------0-------------------|
-----------0----------------------------|
--------0-----------------0-----0-------|
----------------------------------------|
--5-----------5-----5-------------------|

                                         
-----------0----------------------------|
--7--------5--------4--------5-----0----|
----------------------------------------|
--7-------------------------------------|
----------------------------------------|
--7-----7-----7-----7-----7-----7s------|

                                         
----------------------------------------|
--------------------2--------4----------|
-----------0----------------------------|
--2--------------2----------------------|
----------------------------------------|
--2-----2-----2-----2-----2-----0-------|

                                         
-----------0--2h-0--2h-4-----2----------|
--4--------------------------------5----|
--4-------------------------------------|
--------------------------4-----4-------|
----------------------------------------|
--4-----4-----4-----4-------------------|

                    ^                    
--------------------5--------5s-7-------|
-----------0--------0-------------------|
-----------0--------0-------------------|
--------0-----------------------0--0----|
----------------------------------------|
--5-----------5-----------5-------------|

                    ^                    
-----------0-----------------0----------|
--7--------5--------4--------5----------|
--------------------0-------------------|
--7-----------------------------0-------|
----------------------------------------|
--7-----7-----7-----7-------------------|

                                         
--12-------12-------11-------11---------|
----------------------------------------|
--11-------11-------9--------9----------|
--------0-----0-----------0-----0-------|
----------------------------------------|
--0-----------------0-------------------|

                                         
--9--------11-------7--------7----------|
----------------------------------------|
--7--------9--------6--------6----------|
--------0-----0-----------0-----0-------|
----------------------------------------|
--0-----------------0-------------------|

                                                                             
--5-----------------4-----------------2h----0-----------0--------------0----|
--------------------------------------------------------------------0-------|
--------------------------------------------------------------4-------------|
--------------0-----------0-----------------------0-------------------------|
----------------------------------------------------------------------------|
--5-----------------------------------5-------------------------------------|

                                                                             
-----------0-----------0-----------0-----------0-----------0-----------0----|
--------0-----------0-----------0-----------0-----------0-----------0-------|
--6-----------4-----------2-----------4-----------2-----------0-------------|
----------------------------------------------------------------------------|
----------------------------------------------------------------------------|
----------------------------------------------------------------------------|

                                         
-----------12-------11-------11---------|
----------------------------------------|
-----------11-------9--------9----------|
--------0-----0-----------0-----0-------|
----------------------------------------|
--0-----------------0-------------------|

                                         
--9--------11-------7--------7----------|
----------------------------------------|
--7--------9--------6--------6----------|
--------0-----0-----------0-----0-------|
----------------------------------------|
--0-----------------0-------------------|

                                                                             
--5-----------------4-----------------2h----0-----------0--------------0----|
--------------------------------------------------------------------0-------|
--------------------------------------------------------------4-------------|
--------------0-----------0-----------------------0-------------------------|
----------------------------------------------------------------------------|
--5-----------------------------------5-------------------------------------|

                                                                             
-----------0-----------0-----------0-----------0-----------0-----------0----|
--------0-----------0-----------0-----------0-----------0-----------0-------|
--6-----------4-----------2-----------4-----------2-----------0-------------|
----------------------------------------------------------------------------|
----------------------------------------------------------------------------|
----------------------------------------------------------------------------|

                                         
-----------------------------0----------|
-----------0--------0h-2----------------|
-----------------0----------------------|
--------2-----2-----------2-----2s-4----|
----------------------------------------|
--2-----------------2-------------------|

                                         
-----------0-----------------0-----0----|
----------------------------------------|
-----------------0-----0----------------|
--------4-----4-----------4-----4-------|
----------------------------------------|
--4-----------------4-------------------|

                    ^                    
--------------------5--------4----------|
-----------0--------0-------------------|
-----------0--------0-------------------|
--------0-----------------------0-------|
----------------------------------------|
--5-----------5-----------5-------------|

                                         
-----------0-----------------7b----0----|
--7-------------------------------------|
--------------------7s-6--7-------------|
--------7--------7----------------------|
----------------------------------------|
--7-----------7-------------------------|

                                         
-----------------------------0----------|
-----------0--------0h-2----------------|
-----------------0----------------------|
--------2-----2-----------2-----2s-4----|
----------------------------------------|
--2-----------------2-------------------|

                                         
-----------0-----------------0h-2--0----|
----------------------------------------|
-----------------0-----0----------------|
--------4-----4-----------4-------------|
----------------------------------------|
--4-----------------4-------------------|

                    ^                    
--------------------5--------4----------|
-----------0--------0-------------------|
--------------------0-------------------|
--------0-----------------------0-------|
----------------------------------------|
--5-----------5-----------5-------------|

                    ^                    
-----------0--------0-------------------|
--7-----------------4--------5----------|
--------------------0-------------------|
--------7--------7----------------------|
----------------------------------------|
--7-----------7-----------7-----7-------|

  ^                 ^                    
--------------------------------0-------|
--0--------5--------0-------------------|
--7-----------------6-----------0-------|
--7-----------------7-------------------|
----------------------------------------|
--------7-----7-------------------------|

                                         
----------------------------------------|
----------------------------------------|
--2-------------------------------------|
-----------2s-4-----2--------0----------|
----------------------------------------|
--0-----0-----0-----0-----0-----0-------|

                                         
----------------------------------------|
----------------------------------------|
----------------------------------------|
--0--------2--------2h-4-----2h-0--0----|
----------------------------------------|
--0-----0-----0-----0-----0-------------|

                    ^                    
-----------------------------0----------|
-----------0--------0-------------------|
--------------------6-------------------|
--------------------0--------------0----|
----------------------------------------|
--5-----5-----5-----5-----5-----5-------|

                                         
----------------------------------------|
----------------------------------------|
--4-----------------4h-2-----0----------|
-----------0-----0----------------------|
----------------------------------------|
--5-----5-----5-----5-----5-----0-------|

                                         
----------------------------------------|
----------------------------------------|
-----------0-----------------0----------|
--4-----------------2--------------2----|
----------------------------------------|
--0-----0-----0-----0-----0-----0-------|

                                         
----------------------------------------|
----------------------------------------|
----------------------------------------|
--2s-4-----5-----4--4s-2-----0-----0----|
----------------------------------------|
--0-----0-----0-----0-----0-----0-------|

                    ^                    
-----------------------------0----------|
-----------0--------0-------------------|
--------0-----------6-------------------|
--------------------0--------------0----|
----------------------------------------|
--5-----------5-----5-----5-----5-------|

  ^                                      
--------------------0L-0----------------|
----------------------------------------|
--4--------4----------------------------|
-----------------0--------------0-------|
----------------------------------------|
--5-----5-----5-------------------------|

                                         
--7--------7--------7--------7----------|
--0--------0--------0--------0----------|
----------------------------------------|
--------7-----7-----------7-----7-------|
----------------------------------------|
--0-----------------0-------------------|

                                         
--5--------4--------2h-0-----0----------|
--0--------0-----------------0----------|
----------------------------------------|
--------5-----5-----------0-----0-------|
----------------------------------------|
--0-----------------0-------------------|

                                         
--7--------7--------7--------9----------|
--0--------0--------0--------0----------|
----------------------------------------|
--------7-----7-----------7-----7-------|
----------------------------------------|
--0-----------------0-------------------|

                                         
--5--------4--------2h-0-----0----------|
--0--------0-----------------0----------|
----------------------------------------|
--------5-----5-----------0-----0-------|
----------------------------------------|
--0-----------------0-------------------|

                                         
--7--------7--------7--------7----------|
--0--------0--------0--------0----------|
----------------------------------------|
--------7-----7-----------7-----7-------|
----------------------------------------|
--0-----------------0-------------------|

                                         
--5--------4--------2h-0-----0----------|
--0--------0-----------------0----------|
----------------------------------------|
--------5-----5-----------0-----0-------|
----------------------------------------|
--0-----------------0-------------------|

                                         
--------------------0-------------------|
----------------------------------------|
-----------0----------------------------|
--------2--------2----------------------|
----------------------------------------|
--2-----------2-----------4s----5s------|

                    ^                    
----------------------------------------|
--------------------0-------------------|
-----------7--------6-----------7-------|
--------------------0-------------------|
----------------------------------------|
--7-----7-----7-------------------------|

                                         
----------------------------------------|
--0--------2--------2s-4-----5-----2h---|
--0--------------0----------------------|
--------0-----0-----------0-------------|
----------------------------------------|
--2-----2-----2-----2-----2-----0-------|

                                         
--------------------2h-4-----2h-0--0----|
--0-------------------------------------|
-----------0-----0----------------------|
--------------4-------------------------|
----------------------------------------|
--4-----4-----4-----4-----4-------------|

                    ^                    
--------------------5--------5s-7-------|
--------------------0-------------------|
-----------0--------0-------------------|
--------0-----------------------0-------|
----------------------------------------|
--5-----------5-----------5-------------|

                    ^                    
-----------------------------0----------|
--7-----------------4-------------------|
-----------0--------0-------------------|
--7--------7--------7-------------------|
----------------------------------------|
--7-----7-----7-----7-----7-----7-------|

                                         
-----------------------------0----------|
--0-------------------------------------|
--0--------0--------2h-4----------------|
--2--------------2----------------------|
----------------------------------------|
--2-----2-----2-----2-----2-----0-------|

                                         
-----------0--------2h-4-----2h-0--0----|
--4-------------------------------------|
--4-------------------------------------|
----------------------------------------|
----------------------------------------|
--4-----4-----4-----4-----4-----4-------|

                    ^                    
--------------------5--------5s-7-------|
-----------0--------0-------------------|
-----------0--------0-------------------|
--------0-----------------------0-------|
----------------------------------------|
--5-----------5-----------5-------------|

                    ^                    
-----------0----------------------------|
--7--------5--------4--------5----------|
--------------------0-------------------|
--7-----------------------------0-------|
----------------------------------------|
--7-----7-----7-----7-----7-------------|

  ^                 ^                    
--------------------------------0-------|
--0--------5--------0-------------------|
--7-----------------6-----------0-------|
--7-----------------7-------------------|
----------------------------------------|
--------7-----7-------------------------|

                                         
--12-------12-------11-------11---------|
----------------------------------------|
--11-------11-------9--------9----------|
--------0-----0-----------0-----0-------|
----------------------------------------|
--0-----------------0-------------------|

                                         
--9--------11-------7--------7----------|
----------------------------------------|
--7--------9--------6--------6----------|
--------0-----0-----------0-----0-------|
----------------------------------------|
--0-----------------0-------------------|

                                                                             
--5-----------------4-----------------2h----0-----------0--------------0----|
--------------------------------------------------------------------0-------|
--------------------------------------------------------------4-------------|
--------------0-----------0-----------------------0-------------------------|
----------------------------------------------------------------------------|
--5-----------------------------------5-------------------------------------|

                                                                             
-----------0-----------0-----------0-----------0-----------0-----------0----|
--------0-----------0-----------0-----------0-----------0-----------0-------|
--6-----------4-----------2-----------4-----------2-----------0-------------|
----------------------------------------------------------------------------|
----------------------------------------------------------------------------|
----------------------------------------------------------------------------|

                                         
-----------12-------11-------11---------|
----------------------------------------|
-----------11-------9--------9----------|
--------0-----0-----------0-----0-------|
----------------------------------------|
--0-----------------0-------------------|

                                         
--9--------11-------7--------7----------|
----------------------------------------|
--7--------9--------6--------6----------|
--------0-----0-----------0-----0-------|
----------------------------------------|
--0-----------------0-------------------|

                                                                             
--5-----------------4-----------------2h----0-----------0--------------0----|
--------------------------------------------------------------------0-------|
--------------------------------------------------------------4-------------|
--------------0-----------0-----------------------0-------------------------|
----------------------------------------------------------------------------|
--5-----------------------------------5-------------------------------------|

                                                                             
-----------0-----------0-----------0-----------0-----------0-----------0----|
--------0-----------0-----------0-----------0-----------0-----------0-------|
--6-----------4-----------2-----------4-----------2-----------0-------------|
----------------------------------------------------------------------------|
----------------------------------------------------------------------------|
----------------------------------------------------------------------------|

                                         
-----------------------------0----------|
-----------0--------0h-2----------------|
-----------------0----------------------|
--------2-----2-----------2-----2s-4----|
----------------------------------------|
--2-----------------2-------------------|

                                         
-----------0-----------------0-----0----|
----------------------------------------|
-----------------0-----0----------------|
--------4-----4-----------4-----4-------|
----------------------------------------|
--4-----------------4-------------------|

                    ^                    
--------------------5--------4----------|
-----------0--------0-------------------|
-----------0--------0-------------------|
--------0-----------------------0-------|
----------------------------------------|
--5-----------5-----------5-------------|

                                         
-----------0-----------------7b----0----|
--7-------------------------------------|
--------------------7s-6--7-------------|
--------7--------7----------------------|
----------------------------------------|
--7-----------7-------------------------|

                                         
-----------------------------0----------|
-----------0--------0h-2----------------|
-----------------0----------------------|
--------2-----2-----------2-----2s-4----|
----------------------------------------|
--2-----------------2-------------------|

                                         
-----------0-----------------0h-2--0----|
----------------------------------------|
-----------------0-----0----------------|
--------4-----4-----------4-------------|
----------------------------------------|
--4-----------------4-------------------|

                    ^                    
--------------------5--------4----------|
-----------0--------0-------------------|
--------------------0-------------------|
--------0-----------------------0-------|
----------------------------------------|
--5-----------5-----------5-------------|

                    ^                    
-----------0--------0-------------------|
--7-----------------4--------5----------|
--------------------0-------------------|
--------7--------7----------------------|
----------------------------------------|
--7-----------7-----------7-----7-------|

  ^                 ^                    
--------------------------------0-------|
--0--------5--------0-------------------|
--7-----------------6-----------0-------|
--7-----------------7-------------------|
----------------------------------------|
--------7-----7-------------------------|

                    ^                    
--0--------------------------0----------|
--------------------0--------0----------|
-----------0--------6-------------------|
--------0-----------0-------------------|
----------------------------------------|
--5-----5-----5-----5-----5-----5-------|

  ^                                      
-----------0----------------------------|
--0--------0----------------------------|
--4-----------------2h-0-----0----------|
--0--------------0----------------------|
----------------------------------------|
--5-----5-----5-----5-----5-----0-------|

  ^                                      
-----------------------------0-----0----|
--------------------4-------------------|
-----------0----------------------------|
--4--------------4----------------------|
----------------------------------------|
--4-----4-----4-----4-----4-----4-------|

                                         
--------------------0--------2s-4-------|
--------------------0-------------------|
-----------0----------------------------|
-----------------4--------4-----4-------|
----------------------------------------|
--4-----4-----4-----4-------------------|

                                         
--5-----------------5--------5s-7-------|
-----------0--------0-------------------|
-----------------0----------------------|
--------------------------0-----0-------|
----------------------------------------|
--2-----2-----2-----2-------------------|

                                         
--2-----------------2--------4s-5-------|
-----------------------------0----------|
--------0-----0-------------------------|
-----------2-----2----------------------|
--0--------------------------0----------|
----------------------------------------|

                                         
--4--------0----------------------------|
--------------------0-------------------|
-----------------0-----------0----------|
-----------------------------------4----|
----------------------------------------|
--0-----0-----0-----------0-----0-------|

                                         
-----------7----------------------------|
--------------------7-------------------|
-----------------------------7----------|
--------4--------4--------4--------0----|
----------------------------------------|
--0-----------0--------0--------0-------|

                    ^                    
-----------------------------0----------|
-----------0--------0--------0----------|
-----------0--------6-------------------|
--------0-----------0-------------------|
----------------------------------------|
--5-----------5-----------5-----0-------|

  ^                                      
-----------0----------------------------|
--0--------0----------------------------|
--4-----------------2h-0-----0----------|
--0-------------------------------------|
----------------------------------------|
--5-----5-----0--0--5-----5-----0--0----|

                                           ^                    
-----------------------------0----------|--0-------------------|
--------------------0-------------------|--0--------0----------|
--0--------------0----------------------|-----------0----------|
-----------4----------------------------|----------------------|
----------------------------------------|----------------------|
--4-----4-----4-----4-----4-----4-------|--3-----x--------3----|

                                         
--0--------2--------4--------5----------|
--0--------0--------0--------0----------|
----------------------------------------|
-----------------------------------0----|
----------------------------------------|
--2-----2-----2-----2-----2-----2-------|

                                         
--5-----------------5--------5s-7-------|
--0-----------------0-------------------|
-----------0-----0----------------------|
--------0-----0-----------0-----0-------|
----------------------------------------|
--2-----------------2-------------------|

                    ^                    
-----------0--------0--------0----------|
--7--------0--------5--------0----------|
--0-----------------0-------------------|
--------7-------------------------------|
----------------------------------------|
--7-----------7-----7-----7-----7-------|

  ^                 ^                    
-----------0--------------------0-------|
--0--------0--------0-------------------|
--6-----------------6-----------0-------|
--0-----------------0-------------------|
----------------------------------------|
--------7-----7-------------------------|

                                         
--12-------12-------14-------14---------|
----------------------------------------|
--11-------11-------12-------12---------|
--------0-----0-----------0-----0-------|
----------------------------------------|
--0-----------------0-------------------|

                                         
--12-------14-------12-------11---------|
----------------------------------------|
--11-------12-------11-------9----------|
--------0-----0-----------0-----0-------|
----------------------------------------|
--0-----------------0-------------------|

                                         
--12-------11---------------------------|
--------------------12-------12---------|
--11-------11-------11-------11---------|
--------0-----0-----------0-----0-------|
----------------------------------------|
--9-----------------9-------------------|

                                         
--0--------------------------0----------|
--10----------------9s-10s9-------------|
-----------0-----0----------------------|
--------0-----0--------------------0----|
----------------------------------------|
--9-----------------9-------------------|

                    ^        ^           
-----------5--------4--------2----------|
-----------0--------0--------0----------|
-----------0--------0--------0----------|
--------0-----0-----------------0-------|
----------------------------------------|
--5-----------------5-----0-------------|

                                         
--0--------------------------0----------|
--0--------2--------2h-4--2--0----------|
-----------------0-----------------0----|
--------0-----0-----------0-----0-------|
----------------------------------------|
--5-----------------5-------------------|

                                         
--------------------0-------------------|
--------------------0-------------------|
-----------0-----0----------------------|
--2-----2-----2-------------------------|
----------------------------------------|
--2-----------------------4s----5s------|

                    ^                    
-----------------------------0----------|
-----------0--------0--------0----------|
-----------7--------6-------------------|
--------------------0-------------------|
----------------------------------------|
--7-----7-----7-----------7-----0-------|

                                         
--12-------12-------14-------14---------|
----------------------------------------|
--11-------11-------12-------12---------|
--------0-----0-----------0-----0-------|
----------------------------------------|
--0-----------------0-------------------|

                                         
--12-------14-------12-------11---------|
----------------------------------------|
--11-------12-------11-------9----------|
--------0-----0-----------0-----0-------|
----------------------------------------|
--0-----------------0-------------------|

                                         
--12-------11---------------------------|
--------------------12-------12---------|
--11-------11-------11-------11---------|
--------0-----0-----------0-----0-------|
----------------------------------------|
--9-----------------9-------------------|

                                         
--0--------------------------0----------|
--10----------------9s-10s9-------------|
-----------0-----0----------------------|
--------0-----0--------------------0----|
----------------------------------------|
--9-----------------9-------------------|

                    ^        ^           
-----------5--------4--------2----------|
-----------0--------0--------0----------|
--0-----------------0--------0----------|
--0-----------------------------0-------|
----------------------------------------|
--5-----5-----5-----5-----0-------------|

                                          
--2h-0-----------------------0----------||
-----------2--------4s-------------0----||
----------------------------------------||
--------0-----0-----------0-----0-------||
----------------------------------------||
--5-----------------5-------------------||

                                        
-------------------0------------------||
-------------------0------------------||
o---------0-----0--------------------o||
o2-----2-----2-----------------------o||
--------------------------------------||
-2-----------------------4s----5s-----||

                    ^                    
--------------------------------0-------|
--------------------0-------------------|
-----------7--------6-------------------|
--------------------0-------------------|
----------------------------------------|
--7-----7-----7-------------------------|

                                         
--7--------7--------7--------7----------|
--0--------0--------0--------0----------|
----------------------------------------|
--------7-----7-----------7-----7-------|
----------------------------------------|
--0-----------------0-------------------|

                                         
--5--------4--------2h-0-----0----------|
--0--------0-----------------0----------|
----------------------------------------|
--------5-----5-----------0-----0-------|
----------------------------------------|
--0-----------------0-------------------|

                                         
--7--------7--------7--------9----------|
--0--------0--------0--------0----------|
----------------------------------------|
--------7-----7-----------7-----7-------|
----------------------------------------|
--0-----------------0-------------------|

                                         
--5--------4--------2h-0-----0----------|
--0--------0-----------------0----------|
----------------------------------------|
--------5-----5-----------0-----0-------|
----------------------------------------|
--0-----------------0-------------------|

                                         
--7--------7--------7--------7----------|
--0--------0--------0--------0----------|
----------------------------------------|
--------7-----7-----------7-----7-------|
----------------------------------------|
--0-----------------0-------------------|

                                         
--5--------4--------2h-0-----0----------|
--0--------0-----------------0----------|
----------------------------------------|
--------5-----5-----------0-----0-------|
----------------------------------------|
--0-----------------0-------------------|

                                         
--------------------0-------------------|
----------------------------------------|
-----------0----------------------------|
--------2--------2----------------------|
----------------------------------------|
--2-----------2-----------4s----5s------|

                    ^                    
----------------------------------------|
--------------------0-------------------|
-----------7--------6-------------------|
--------------------0-------------------|
----------------------------------------|
--7-----7-----7-----------7-----x-------|

                             ^
-----------------------------0----------|-------------||
-----------------------------0----------|-------------||
----------------------------------------|-------------||
--7-----2s-4-----------4----------------|-------------||
--------------------2-------------------|-------------||
-----------------0----------------------|-------------||
Tap to rate this tab
# A B C D E F G H I J K L M N O P Q R S T U V W X Y Z