Song name
# A B C D E F G H I J K L M N O P Q R S T U V W X Y Z

Sungha Jung - A Thousand Years tab

By: Darwin Taladiar

this is my first tab.rate pls. :)

Capo on 3rd fret.
This version is Sungha Jung's

Intro:
e---7--7--7------5----7--7--7-----5----8--8--8--7----7--------5--3--2----|
B---8--8--8-----------8--8--8-----7----5--5--5-------8--8-----3--3------3|
G--------------------------------------5-------------7--7-----2----------|
D------------------------------------------------------------------0--0--|
A----------------9-------------------------------------------------------|
E---10----------------0--------------------------------------------------|

Verse: YOU WILL DO THE VERSE 2X
3X
e----------------------------|
B---------------3------------|
G---0------------------------|
D--------2-----------2-------|
A---3------------------------|
E----------------------------|

e----------------------------|
B---0------------------------|
G------2---0-----------------|
D----------------------------|
A---3------------------------|
E----------------------------|

3x
e----------------------------|
B-----------3----------------|
G--0-------------------------|
D------0---------0-----------|
A--2-------------------------|
E----------------------------|

e---------------------------------------------------------------------------|
B--3---1p0-----------------------------3---1p0--------------0---------------|
G----------------2p0---0----0--------------------2---2-----------------0h2--|
D-------------0-----------2------2-------------------0--0-------4----------0|
A--2---------------------------2--------------------------------------------|
E----------------------0---------------0------------------------2---2-------|

Pre-Chorus
YOU WILL BE STRUMMING IN THIS PART.
e----33333-----000---222------33333-----0h2---------------------------|
B----33333-----333---333------33333-----3-----------------------------|
G----00000-----000---000------00000-----2-----------------------------|
D----22222-----222---222------00000-----0-----------------------------|
A----00000-----000---000------22222-----X-----------------------------|
E----XXXXX-----XXX---XXX------33333-----X-----------------------------|

CHORUS:
e-----------------------0------------------------------|
B--0-3p0-------0-3p0----------------3------------------|
G--0-0-----0---0-0------------0---------2--0-----------|
D--0-------0---0------------0---0----------------------|
A------------------------------------------------------|
E--3-----------3--------3---------------2--------------|


e-----------------------0------------------------------|
B--0-3p0-------0-3p0----------------3------------------|
G--0-0-----0---0-0------------0---------2--0-----------|
D--0-------0---0------------0---0-------0--------------|
A------------------------------------------------------|
E--0-----------0--------3------------------------------|
Tap to rate this tab
# A B C D E F G H I J K L M N O P Q R S T U V W X Y Z