Song name
# A B C D E F G H I J K L M N O P Q R S T U V W X Y Z

Sungha Jung - Let It Go tab

Title: Let It Go
tabbed by wikaman1

Artist: Sungha Jung
Tempo = 120
Steel Guitar

Legend
L - tied note
x - dead note
h - hammer on/pull off
b - bend
s - slide
~ - vibrato
g - ghost note
> - accentuated note
t - trill
M - palm mute
. - staccato
P - popping (bass)
S - slapping (bass)
+ - tapping
W - wide vibrato
< - fade in
w - whammy bar
= - tremolo picking
v - brush up
^ - brush down
V - pick stroke up
n - pick stroke down

                                                             
E |-----------------3h-2--3----|--------------------7--5----|
B |----------------------------|-----------3----------------|
G |----------------------------|--------0--------0----------|
D |----------------------------|-----0----------------------|
A |----------------------------|----------------------------|
E |----------------------------|--3-------------------------|

                                           ^              
-----------5--------3-------|--0--0--0-----0-----2--3----|
--------7-------------------|--------------0-------------|
-----7-----------------0----|--------------0-------------|
--0--------------0----------|-----------2----------------|
----------------------------|----------------------------|
----------------------------|--0-------------------------|

                                                          
-----------------0h-2--3----|--------------------7--5----|
-----------3----------------|-----------3----------------|
--------0-------------------|--------0--------0----------|
-----2----------------------|-----0----------------------|
--3-------------------------|----------------------------|
----------------------------|--3-------------------------|

                                                    ^                     
-----------5----------------|--7-----8--7----------------|-------|-------|
--------7-----------8s-10---|-----------------8s-10-8L---|--8L---|--8----|
-----7----------------------|-----------------------9L---|--9L---|--9----|
--0--------------0----------|----------------------------|-------|-------|
----------------------------|----------------------------|-------|-------|
----------------------------|--0-------------------------|--8L---|--8----|

                                                          
----------------------------|----------------------------|
--0-----0-----------0-------|--0-----------------0-------|
----------------------------|-----2h-0--0----------------|
--2--------2--2-------------|--------------------2h-0----|
--------------x--------0----|--3-----------3-----x-------|
--0-----------x-------------|--------------------x-------|

                                           ^              
----------------------------|----------------------------|
----------------------------|--------------0-------------|
--2--2--------2h-0-----2----|--------------2-------------|
-----------4--x-------------|-----------2--x-----2h-0----|
--5-----------x-------------|--0-----0-----x-------------|
--------------x-------------|--------x-----x-------------|

              ^                                           
-----------------------0----|----------------------------|
--0--------0--0-----3-------|-----3----------------------|
--------------0-------------|-----0--------0-----2h-0----|
--2-----2-----x--2----------|-----2-----2--2-------------|
--------------x-------------|--3-----------x--3----------|
--0-----------x-------------|--------------x-------------|

                                           ^     ^  v     
----------------------------|----------------------------|
----------------------------|--------------0-------------|
--2-----2--------2h-0--2----|--------------2-----2--2----|
--------4-----x-------------|-----------2--x-----2h-0----|
--5--------5--x-------------|--0-----0-----x-------------|
--------------x-------------|--------x-----x-------------|

                                           ^              
-----------------------0----|--------------0-------------|
--0--------0--0-----3-------|-----3-----0--0--3s-5--3----|
--------------0-------------|-----0-----0--0--------0----|
--2-----2-----x--2----------|-----2-----2--x-------------|
--------------x-------------|--3-----------x-------------|
--0-----------x-------------|--------------x-------------|

                                     ^  v        ^  v     
----------------------------|--------------0-------------|
--------3--------0-----1h---|--0-----------0-------------|
--------0--5----------------|--------------2-------------|
--------------x-------------|--------2--2--2-----2--2----|
--5-----------x-------------|--0-----0--0--x-----0--0----|
--------------x-------------|--------------x-------------|

                                                          
----------------------------|----------------------------|
--------0-----0-------------|-----------0--1h-0-----0----|
--------------2h-0-----2----|--------2-------------------|
-----2--------x-------------|--0-----------0-------------|
--------------x-------------|--------------------x-------|
--0-----------x-------------|--------------------x-------|

                    ^  v          v     v  ^  v  ^        
--------------0-------------|----------------------------|
--------------0--------1L---|--1--1-----1--1--1--1-------|
--------2-----2--------2L---|--2--2-----2--2--2--2h-0----|
--------2-----x-----2--2L---|--2--2-----2--x--2--2-------|
--0-----------x-----0--0L---|--0--0-----0--x-------------|
--------------x-------------|--------------x-------------|

                                                    ^     
----------------------------|-----------------0-----0----|
-----------------3-----3----|-----------------------3----|
--------2--2-----------2----|--------2--2-----------2----|
--0-------------------------|--0-------------------------|
--------------x-------------|--------------x-------------|
--------------x-----x-------|--------------x-----x-------|

                                                          
-----------0--0--0----------|--0h-2-----3-----2-----2----|
--------------3--------3----|-----------3-----3----------|
--------0--0-----------0----|--------0-----0-------------|
--------------x-------------|--------------x-------------|
--3-----------x-----x-------|--3-----------x-------------|
--------------x-----x-------|----------------------------|

                                                    ^     
-----0----------------------|-----------------0-----0----|
-----------------3-----3----|-----------------------3----|
--------2--2-----------2----|--------2--2-----------2----|
--0-------------------------|--0-------------------------|
--------------x-------------|--------------x-------------|
--------------x-----x-------|--------------x-----x-------|

              ^        v          ^                       
----------------------------|-----------------------0----|
-----------------------3L---|--3--------------3-----3----|
--------------0--------0----|-----0--------0-------------|
--------------2-------------|-----2-----2--2--2----------|
--3-----------3-------------|-----------3--x-------------|
----------------------------|--------------x-------------|

           ^                 
-----2-----3-----------3L---|
-----3-----3-----------3L---|
-----------0----------------|
-----------2----------------|
--3-------------------------|
--------------------x-------|

        v     ^     v     ^                          
--3-----3-----3-----3-----3-----0h----2-----3-------|
--3-----3-----3-----3-----3-------------------------|
--------------------------x-------------------------|
--------------------------x-------------------------|
--------------------------x-------------------------|
----------------------------------------------------|

  ^     v     ^                                      
--------------------3-----------------5s-7--5-------|
--------------------3-----------3-------------------|
--------------------0-----------0-----------7-------|
--------------------------0-------------------------|
--x-----x-----x-----------x-------------------------|
--3-----3-----3-----------x-------------------------|

     ^  v  v                               ^              
-----------5--------3h-0----|--0--0--0-----0-----2--3----|
-----7--7--7----------------|--------0-----0-------------|
-----7--7--------------0----|--------------0-------------|
--0-----------x--0----------|-----------2----------------|
--------------x-------------|--------------x-------------|
--------------x-------------|--0-----------x-------------|

                             
-----------------0h-2--3----|
-----------3-----3-----3----|
-----------0--x-------------|
-----2--------x-------------|
--3-----3-----x-------------|
--x-----x-------------------|

  ^     v     ^                                      
--------------------3-----------------5s-7--5-------|
--------------------3-----------3-------------------|
--------------------0-----------0-----------7-------|
--------------------------0-------------------------|
--x-----x-----x-----------x-------------------------|
--3-----3-----3-----------x-------------------------|

     ^  v  v                                        ^     
-----------5----------------|--7-----8--7----------------|
-----7--7--7--------8s-10---|-----------------8s-10-8----|
-----7--7-------------------|--0-----0--------------9----|
--0-----------x--0----------|--------------x--------0----|
--------------x-------------|--------------x-------------|
--------------x-------------|--0-----------x-------------|

     v  ^  v     v             ^              v  ^        
----------------------------|--10-------7----------------|
-----------8-----8--8-------|--0--------0--------10L-----|
-----9--9--9-----9--9-------|--0--------------0--7L------|
-----0--0-----------x-------|--------x--------0--0-------|
-----x--x--x--------x-------|--10----x--10-------10L-----|
--8--8--8--8-----8h-0-------|--------xL-x--------x-------|

                               ^                 ^        
----------------------------|--10-------7----------------|
--10-10----10-10-10---------|--0--------0--------8L------|
--7--7-----7--7--7----------|--0--------------0--9L------|
----------------------------|--------x--------0--9L------|
--10----------10h0--0--0----|--10----x--10---------------|
----------------------------|--------xL-xL----x--8L------|

                             
-----------------0h-2--3----|
--8--8-----8--8--3-----3----|
--9--9-----9--9-------------|
--9--9-----9--9-------------|
--------------x-------------|
--8--8-----8--x-------------|

  ^     v     ^                                      
--------------------------3-----------5s-7--5-------|
--------------------3-----3-------------------------|
--------------------------0-----0-----------7-------|
--------------------0-----x-------------------------|
--x-----x-----x-----------x-------------------------|
--3-----3-----3-----------x-------------------------|

     ^  v  v                                              
-----------5----------------|----------------------------|
-----7--7--7----------------|--1-----1h-0--1h-0--0--1h---|
-----7--7-------------------|----------------------------|
--0-----------x--0-----0----|--------2-----2--------2----|
--------------x-------------|--3-------------------------|
--------------x-------------|----------------------------|

                                                          
----------------------------|----------------------------|
--0-------------------------|--------0-----0-----0-------|
-----0----------------------|----------------------------|
----------------------------|--x-------------------------|
--------x-----x-----x-------|--x-------------------------|
--------x-----x-----x-------|--0--0--0--0--0--0--0--0----|

                                                          
----------------------------|----------------------------|
--0-------------------------|----------------------------|
-----2h-0--0--------0-------|--2-----2--------2h-0--2----|
-----0--------------0-------|--4-----4--------4-----2----|
--3--3--3--3--3--3--3--3s---|--5--5--5--5--5--5-----0----|
----------------------------|----------------------------|

                                                          
--------0-------------------|-----------------------0----|
--------1-------------------|-----------0-----3----------|
----------------------------|--------0--0----------------|
-----------------2--2--0----|--2-----2-------------------|
--0--0--0--0--0--0--0--0----|--------------------0--3----|
----------------------------|--0--0--0--0--0--0----------|

                                                          
----------------------------|--3-----3--2-----0--0-------|
-----3--------------3s-5----|--5-----5--5--------0-------|
-----0----------------------|-----------------0----------|
----------------------------|----------------------------|
--3--3--3--3--3--3--3--3----|--5--5--5--5--5--5--5--5----|
----------------------------|----------------------------|

                                                          
----------------------------|--0--------0-----0-----2----|
-----0----------------------|-----------0-----0----------|
-----2----------------------|--0-------------------------|
-----------2--2-----2--0----|----------------------------|
--0--0--0--0--0--0--0--0----|----------------------------|
----------------------------|--0--0--0--0--0--0--0--0----|

                                                          
-----3-----0----------------|--------------------0-------|
-----0-----------3-----0----|--3-----0--3-----0--0-------|
-----------------0-----0----|--0-----0--0-----0----------|
----------------------------|----------------------------|
--3--3--3--3--3--3--3--0----|--5--5--5--5--5--5--5--5----|
----------------------------|----------------------------|

                                                          
----------------------------|--0-----0--0-----2-----3----|
-----1--------1h-0----------|--0-----0--0-----------0----|
-----2--------2-------------|-----------------0----------|
-----2--------------2h-0----|----------------------------|
--0--0--0--0--0--0----------|----------------------------|
--------------0-------------|--0--0--0--0--0--0--0--0----|

                                                          
-----2-----0----------------|--3-----0--3-----0--3s-5----|
-----------3-----3----------|--3--------3--------3-------|
-----------------0----------|----------------------------|
--0--0--0--0--0--0--0-------|----------------------------|
-----------------------0----|--3--------3--------3-------|
----------------------------|----------------------------|

  ^        v                 
-----------5--x--0h-2--3----|
--5--------0--x--3-----3----|
--0--------0--x-------------|
--x-----------x-------------|
--3-----------x-------------|
--x-----------x-------------|

  ^     v     ^                                      
--------------------3-----------------5s-7--5-------|
--------------------3-----------3-------------------|
--------------------0-----------0-----------7-------|
--------------------------0-------------------------|
--x-----x-----x-----------x-------------------------|
--3-----3-----3-----------x-------------------------|

     ^  v  v                               ^              
-----------5--------3h-0----|--0--0--0-----0-----2--3----|
-----7--7--7----------------|--------0-----0-------------|
-----7--7--------------0----|--------------0-------------|
--0-----------x--0----------|-----------2----------------|
--------------x-------------|--------------x-------------|
--------------x-------------|--0-----------x-------------|

                             
-----------------0h-2--3----|
-----------3-----3-----3----|
-----------0--x-------------|
-----2--------x-------------|
--3-----3-----x-------------|
--x-----x-------------------|

  ^     v     ^                                      
--------------------3-----------------5s-7--5-------|
--------------------3-----------3-------------------|
--------------------0-----------0-----------7-------|
--------------------------0-------------------------|
--x-----x-----x-----------x-------------------------|
--3-----3-----3-----------x-------------------------|

     ^  v  v                                        ^     
-----------5----------------|--7-----8--7----------------|
-----7--7--7--------8s-10---|-----------------8s-10-8----|
-----7--7-------------------|--0-----0--------------9----|
--0-----------x--0----------|--------------x--------0----|
--------------x-------------|--------------x-------------|
--------------x-------------|--0-----------x-------------|

     v  ^  v     v             ^                          
----------------------------|--10-------7----------------|
-----------8-----8--8-------|--0--------0--------10L-----|
-----------9-----9--9-------|--0--------------0--7L------|
--------------------x-------|--------x--------0L-0-------|
-----x--x--x--------x-------|--10----x--10-------10L-----|
--8--8--8--8-----8h-0-------|--------xL-xL----xL-x-------|

                               ^                          
----------------------------|--10-------7----------------|
--10-10----10-10-10---------|--0--------0--------8L------|
--7--7-----7--7--7----------|--0--------------0--9L------|
----------------------------|--------x--------0--9L------|
--10----------10h0--0--0----|--10----x--10---------------|
----------------------------|--------xL-xL----x--8L------|

                             
-----------------0h-2--3----|
--8--8-----8--8--3-----3----|
--9--9-----9--9-------------|
--9--9-----9--9-------------|
--------------x-------------|
--8--8-----8--x-------------|

  ^     v     ^                                      
--------------------------3-----------5s-7--5-------|
--------------------3-----3-------------------------|
--------------------------0-----0-----------7-------|
--------------------0-----x-------------------------|
--x-----x-----x-----------x-------------------------|
--3-----3-----3-----------x-------------------------|

     ^  v  v                                              
-----------5----------------|--8-----8h-7--8h-7--7--8h---|
-----7--7--7----------------|--8-----------8-------------|
-----7--7-------------------|--0-----0-----0-------------|
--0-----------x--0-----0----|--------------x-------------|
--------------x-------------|--------------x-------------|
--------------x-------------|--8-----------x--------8----|

                                            ^  v     
--7-----------------7-----------7-------------------|
--------8-----------8-----------8-----8-------------|
--------0-----------0-----------0-----0-------------|
--------------x-----------------------------0--0----|
--------------x-----------------------------0--0----|
--------------x-------------------------------------|

                                            ^  v     
--------------------3-----------------5-------------|
--------------------3-----------------5-------------|
----------------------------------------------------|
--------------x-----------------0-----------0--0----|
--x-----x-----x-----------------0-----------0--0----|
--3-----3-----3-----3-------------------------------|

                                            ^  v     
--------------------3-----------------5-------------|
--------------------3-----------------5-------------|
--------------------2-------------------------------|
--------------x-----------------0-----------0--0----|
--x-----x-----x-----------------0-----------0--0----|
--2-----2-----2-----2-------------------------------|

                                            ^  v     
--------------------3-----------------5-------------|
--------------------3-----------------5-------------|
--------------------------------0-------------------|
--------------x-----2-----------2-----------0--0----|
--x-----x-----x-----------------------------0--0----|
--0-----0-----0-----0-------------------------------|

  ^           ^     v           v     ^     ^  v     
--5-----------5-----5-----------3-----3-------------|
--5-----------5-----5-----------3-----3-------------|
----------------------------------------------------|
--------------------------------------------0--0----|
--3-----------x-----------------3-----3-----0--0----|
--------------x-------------------------------------|

                                            ^  v     
--------------------3-----------------5-------------|
--------------------3-----------------5-------------|
----------------------------------------------------|
--------------x-----------------0-----------0--0----|
--x-----x-----x-----------------0-----------0--0----|
--3-----3-----3-----3-------------------------------|

                                            ^  v     
--------------------3-----------------5-------------|
--------------------3-----------------5-------------|
--------------------2-------------------------------|
--------------x-----------------0-----------0--0----|
--x-----x-----x-----------------0-----------0--0----|
--2-----2-----2-----2-------------------------------|

                                            ^  v     
--------------------3-----------------5-------------|
--------------------3-----------------5-------------|
--------------------------------0-------------------|
--------------x-----2-----------2-----------0--0----|
--x-----x-----x-----------------------------0--0----|
--0-----0-----0-----0-------------------------------|

  ^                                         ^  v     
--8-----------7-----8-----------------7-------------|
--8-----------8-----10----------8-------------------|
--0-----------------------------0-----0-------------|
--------------x-----------------------------0--0----|
--------------x-----------------------------0--0----|
--8-----------x-----8-------------------------------|

                                            ^  v     
--------------------3-----------------5-------------|
--------------------3-----------------5-------------|
----------------------------------------------------|
--------------x-----------------0-----------0--0----|
--x-----x-----x-----------------0-----------0--0----|
--3-----3-----3-----3-------------------------------|

                                                          
-----------3--------2--3----|-----3--3--3--------3--3----|
-----------3--------3-------|-----3--3--3-----3--3--3----|
-----------2----------------|-----0--0--0-----0--0--0----|
--------x--------0----------|-----2--2--2-----2--2--2----|
--x--x--x--------0----------|--x--x--x--0-----x--x--x----|
--2--2--2--2----------------|--0--0--0--0-----0--0--0----|

                                                          
--3--------------0h-2--3----|--------------------7--5----|
--3--------3----------------|-----------3----------------|
--0--------0----------------|--------0--------0----------|
----------------------------|-----0----------------------|
--3-----3-------------------|----------------------------|
--------x-------------------|--3-------------------------|

                                           ^              
-----------5--------3-------|--0--0--0-----0-----2--3----|
--------7-------------------|--------------0-------------|
-----7-----------------0----|--------------0-------------|
--0--------------0----------|-----------2----------------|
----------------------------|----------------------------|
----------------------------|--0-------------------------|

                                  v  ^  v                 
-----------------------3L---|--3--------------3h-2--3----|
-----------------------3L---|--3--3--3--3----------------|
--------0--------0----------|-----0--0--0----------------|
-----2-----------0-----x----|-----2--2--2--x-------------|
--3--3-----3-----------x----|-----3--3--3--x-------------|
-----------------------x----|--------------x-------------|

  ^     v     ^                                      
--------------------3-----------------5s-7--5-------|
--------------------3-----------3-------------------|
--------------------0-----------0-----------7-------|
--------------------------0-------------------------|
--x-----x-----x-----------x-------------------------|
--3-----3-----3-----------x-------------------------|

     ^  v  v                                              
-----------5----------------|--7-----8--10----7-----7----|
-----7--7--7--------8s-10---|-----------0----------------|
-----7--7-------------------|--0--------------0----------|
--0-----------x--0----------|--------------x-------------|
--------------x-------------|--------------x-----x-------|
--------------x-------------|--0-----------x-----x-------|

                    ^                                
--7-----8h-7--------------------7-----7-----7-------|
--------------10----8-----------8-----8-----8-------|
--------------------0-----------0-----0-----0-------|
--------------------------------------x-------------|
--------------------------------------x-------------|
--8-----------------8-------------------------------|

  ^                               ^     ^  v  ^           
--10-------7----------------|----------------------------|
--0--------0--------10L-----|--10-10----10-10-10---------|
--0--------------0----------|----------------------------|
--------x--------0--10L-----|--10-10----10-10-10-x-------|
--10----x--10L---10L10------|--------------------x-------|
--------xL-xL----x--8L------|--8--8-----8--8--8--0-------|

  ^                                                  
--10----------------7s-10-------------0-------------|
--0-----------------0-----------------8L------------|
--0-----------------------------------9L------------|
--------------x-----------------------9L------------|
--10----------x-----------------x-------------------|
--------------xL----x-----------8-----8L------------|

                                                          
----------------------------|-----------------7-----7L---|
--8--8-----8--8--8s-7--8----|-----------8----------------|
--9--9-----9--9--0----------|-----------------0-----0L---|
--9--9-----9--9-------------|--9-----x--9--------x-------|
--------------x-------------|--10-10-x--10h9-----x--9L---|
--8--8-----8--x-------------|--------x-----------x-------|

                                                     
--7-----8h-7--------------------7-------------------|
--------------10----------------10------------------|
--0-----------9-----------9-----9-------------------|
--------------------------------------0-------------|
--9-----------9-----------9-----------0-------------|
----------------------------------------------------|

                                        v        v  ^     
--8-----8h-7--8h-7--7--8h---|--7--10----10-------10-10---|
--8-----------8-------------|-----------8--------8--8----|
--0-----0-----0-------------|-----0-----0--------0--0----|
--------------x-------------|--------x-------------------|
--------------x-------------|--------x-------------------|
--8-----------x--------8----|--------x--------x----------|

  ^                                         ^  v     
--10------------------------------------------------|
--0-----------------8-----------------10------------|
--0-----------------0-----------0-------------------|
--------------x-----------------0-----------0--0----|
--10----------x-----------------------------0--0----|
--------x-----x-------------------------------------|

                                            ^  v     
----------------------------------------------------|
--------------------8-----------------10------------|
--------------------0-----------0-------------------|
--------------x-----------------0-----------0--0----|
--9-----9-----9-----------------------------0--0----|
--x-----x-----x-------------------------------------|

                                            ^  v     
--------------10----7-------------------------------|
--------------------------------------10------------|
--------------------0-----------0-------------------|
--------------x-----------------0-----------0--0----|
--x-----x-----x-----------------------------0--0----|
--0-----0-----0-----0-------------------------------|

  ^                 v           v     ^     ^  v     
----------------------------------------------------|
--10----------------10----------8-----8-------------|
--9-----------------9-----------9-----9-------------|
--------------x-----------------------------0--0----|
--------------x-----------------------------0--0----|
--8-----------x-----------------8-----8-------------|

                                            ^  v     
----------------------------------------------------|
--------------------8-----------------10------------|
--------------------0-----------0-------------------|
--------------x-----------------0-----------0--0----|
--10----10----10----------------------------0--0----|
--x-----x-----x-------------------------------------|

                                            ^  v     
----------------------------------------------------|
--------------------8-----------------10------------|
--------------------0-----------0-------------------|
--------------x-----------------0-----------0--0----|
--9-----9-----x-----------------------------0--0----|
--x-----x-----x-------------------------------------|

                                            ^  v     
--------------10----7-------------------------------|
--------------------------------------10------------|
--------------------0-----------0-------------------|
--------------x-----------------0-----------0--0----|
--x-----x-----x-----------------------------0--0----|
--0-----0-----x-----0-------------------------------|

  ^                 v           v     ^     ^  v     
----------------------------------------------------|
--10----------------10----------8-----8-------------|
--9-----------------9-----------9-----9-------------|
--------------x-----------------------------0--0----|
--------------x-----------------------------0--0----|
--8-----------x-----------------8-----8-------------|

                                            ^  v     
----------------------------------------------------|
--------------------8-----------------10------------|
--------------------0-----------0-------------------|
--------------x-----------------0-----------0--0----|
--10----10----x-----------------------------0--0----|
--x-----x-----x-------------------------------------|

                                            ^  v     
----------------------------------------------------|
--------------------8-----------------10------------|
--------------------0-----------0-------------------|
--------------x-----------------0-----------0--0----|
--9-----9-----x-----------------------------0--0----|
--x-----x-----x-------------------------------------|

                                            ^  v     
--------------10----7-------------------------------|
--------------------------------------10------------|
--------------------0-----------0-------------------|
--------------x-----------------0-----------0--0----|
--x-----x-----x-----------------------------0--0----|
--0-----0-----x-----0-------------------------------|

  ^        v     v  ^  ^                                  
----------------------------|-----------------7-----7L---|
--10-------8h-7--8h-7--8----|-----8-----8-----8----------|
--9--------0-----0----------|--0--------0-----------0L---|
--------x-----x-------------|--------x-----------x-------|
--------x-----x-------------|--------x-----------x-------|
--8-----x-----x-------------|--------x-----------x-------|

                                            ^  v     
--7-----8h-7--------------------0-------------------|
--------------10----------------10------------------|
--0-----------0-----------0-----0-------------------|
--------------------------------------------0--0----|
--------------9-----------9-----------------0--0----|
----------------------------------------------------|

  ^     ^  v     v                ^  v  ^                   ^
--10----10-7-----7----------|-----------------3s-2-------|--3L---|--3----||
--8-----8--8-----8-----10L--|--10-8--8--8-----0----------|--3L---|--3----||
--7--------7-----7----------|-----7--7--7--0-------------|--0L---|--0----||
--9-----x--9-----9--x-------|--------------x-------------|--0L---|--0----||
--7-----x--7-----7--x-------|--------------x-------------|--2L---|--2----||
--------x-----------x--8L---|--8--8--8--8--x-------------|--3L---|--3----||
Tap to rate this tab
# A B C D E F G H I J K L M N O P Q R S T U V W X Y Z