Song name
# A B C D E F G H I J K L M N O P Q R S T U V W X Y Z

Sungha Jung - For You tab

Capo 1

This may not be perfect but in my opinion, Sungha Jung uses the key of D#.

Verse:

e\--------------5|--3-2-0-0----5-----5-3---|--3-----0~2--0----0-0----------
B\--2~3--------3-|--3-3-----3------1-------|--3---3-3------3------3-2-0----
G\--2---------2--|--2-2-----------0--------|----------------------------0-2
D\-----------0---|--0-0--------------------|-------------------------------
A\---------------|-------------------------|--2-----2-----------0----------
D\---------------|---------------5-----5---|-------------------------------

e\-(5)|--------------5|--3-2-0-0----5-----5---5~7-5----5|
B\-(5)|--2~3--------3-|--3-3-----3------1------------1--|
G\-(5)|--2---------2--|--2-2-----------0-----------0----|
D\----|-----------0---|--0-0----------------------------|
A\----|---------------|---------------------------------|
D\----|---------------|---------------5------5----5-----|

e\--3-----0~2--0----0|--0---2---|(3)--|
B\--3---3-3------3---|---3--3-3-|(3)--|
G\-------------------|----0-----|(0)--| <- Up Stroke...
D\-------------------|----------|-----|
A\--2-----2----------|--0-------|-----|
D\-------------------|----------|-----|

(Repeat 2x)

Pre:

e\---------5|---------------------|--3-2-5-|---------------|--5-3-2-3|
B\--2~3---3-|---------------------|--3-3--3|---------------|---------|
G\--2----2--|---------------------|--2-2---|---------------|---------|
D\------0---|  <- (Pluck this...)-|--0-0---|  <- Pluck this|---------|
A\----------|---------------------|--------|---------------|--2-2-2-2|
D\----------|---------------------|------5-|---------------|---------|

e\--5-3-2-0---------0-2-0-3-3-3-3-3-3|
B\----------2~3-3---------3-3-3-3-3-3|
G\------------------------0-0-0-0-0-0|
D\------------------------0-0-0-0-0-0|
A\--2-2-2-2-------0-------0-0-0-0-0-0|
D\-----------------------------------|

Chorus:

e\---(12)--(12)--(12)-10/9--10----10-10---10--12--10--10--10--9---7--7--9-5-7
B\-10----10----10-----10-10-10--10-----10-10--12--10--10--10--10-10-10-10-5-7
G\---------------------------------------------------------------------------
D\---------------------------------------------------------------------------
A\-------------------------------------------------0----------------------5-7
D\-0-----11----10------------9----------8------------------------------------

(Repeat 2x)

This is much more easier. :) Hope this helps. :)
Tap to rate this tab
 
# A B C D E F G H I J K L M N O P Q R S T U V W X Y Z