Song name
# A B C D E F G H I J K L M N O P Q R S T U V W X Y Z

Sunil Parajuli - Kahile Kahi tab

This is the tab for the unplugged version of the song Kahile Kahi by Sunil Parajuli.
Please use this video as reference: http://www.youtube.com/watch?v=ao90EaCaeNU
As you can see in the video, two guitars are being played throughout the song. 
This tab is for the rhythm guitar played by the singer himself.
If you notice he is not simply playing the chords but there are variations. The 
lyrics put in here may not be correct
and I've tried to make the tabs as accurate as possible. Feel free to share your views. Enjoy !!!

-----------------------------------------------------------------------------
                           KAHILE KAHI - Sunil Parajuli
-----------------------------------------------------------------------------
Tabbed by: Raj Bhandari
E-mail: raj_style4@yahoo.com

Tuning: EADGBe


  INTRO:

e|-1-1-1-1--1-1-1-1--1-1-1-1--1-1-1-1--3-3-3-3--3-3-3-3--3-3-3-3--3-3-3-3-|
B|-3-3-3-3--3-3-3-3--3-3-3-3--3-3-3-3--3-3-3-3--3-3-3-3--3-3-3-3--3-3-3-3-|
G|-2-2-2-2--0-0-0-0--0-0-0-0--0-0-0-0--0-0-0-0--0-0-0-0--0-0-0-0--0-0-0-0-|
D|-0-0-0-0--2-2-2-2--3-3-3-3--2-2-2-2--2-2-2-2--2-2-2-2--2-2-2-2--2-2-2-2-|
A|-x-x-x-x--x-x-x-x--x-x-x-x--x-x-x-x--3-3-3-3--x-x-x-x--3-3-3-3--x-x-x-x-|
E|-x-x-x-x--x-x-x-x--x-x-x-x--x-x-x-x--x-x-x-x--3-3-3-3--x-x-x-x--3-3-3-3-|


e|-0-0-0-0--0-0-0-0--0-0-0-0--0-0-0-0---3-3-3-3--0-0-0-0--0-0-0-0--0-0-0-0-|
B|-3-3-3-3--3-3-3-3--3-3-3-3--3-3-3-3---3-3-3-3--2-2-2-2--0-0-0-0--2-2-2-2-|
G|-2-2-2-2--2-2-2-2--2-2-2-2--2-2-2-2---2-2-2-2--2-2-2-2--2-2-2-2--2-2-2-2-|
D|-3-3-3-3--3-3-3-3--3-3-3-3--3-3-3-3---2-2-2-2--2-2-2-2--2-2-2-2--2-2-2-2-|
A|-1-1-1-1--1-1-1-1--1-1-1-1--1-1-1-1---0-0-0-0--0-0-0-0--0-0-0-0--0-0-0-0-|
E|-x-x-x-x--x-x-x-x--x-x-x-x--x-x-x-x---x-x-x-x--x-x-x-x--x-x-x-x--x-x-x-x-|


Kahilekahi    malai    lagchha     Ho yasto lagchha                     Hamro

e|---1-1-1-1--1-1-1-1--1-1-1-1--1-1-1-1--3-3-3-3--3-3-3-3--3-3-3-3--3-3-3-3-|
B|---3-3-3-3--3-3-3-3--3-3-3-3--3-3-3-3--3-3-3-3--3-3-3-3--3-3-3-3--3-3-3-3-|
G|---2-2-2-2--0-0-0-0--0-0-0-0--0-0-0-0--0-0-0-0--0-0-0-0--0-0-0-0--0-0-0-0-|
D|---0-0-0-0--2-2-2-2--3-3-3-3--2-2-2-2--2-2-2-2--2-2-2-2--2-2-2-2--2-2-2-2-|
A|---x-x-x-x--x-x-x-x--x-x-x-x--x-x-x-x--3-3-3-3--x-x-x-x--3-3-3-3--x-x-x-x-|
E|---x-x-x-x--x-x-x-x--x-x-x-x--x-x-x-x--x-x-x-x--3-3-3-3--x-x-x-x--3-3-3-3-|


   jeevan   kewal                dui din ko yatra                      Haansi

e|-0-0-0-0--0-0-0-0--0-0-0-0--0-0-0-0---3-3-3-3--0-0-0-0--0-0-0-0--0-0-0-0-|
B|-3-3-3-3--3-3-3-3--3-3-3-3--3-3-3-3---3-3-3-3--2-2-2-2--0-0-0-0--2-2-2-2-|
G|-2-2-2-2--2-2-2-2--2-2-2-2--2-2-2-2---2-2-2-2--2-2-2-2--2-2-2-2--2-2-2-2-|
D|-3-3-3-3--3-3-3-3--3-3-3-3--3-3-3-3---2-2-2-2--2-2-2-2--2-2-2-2--2-2-2-2-|
A|-1-1-1-1--1-1-1-1--1-1-1-1--1-1-1-1---0-0-0-0--0-0-0-0--0-0-0-0--0-0-0-0-|
E|-x-x-x-x--x-x-x-x--x-x-x-x--x-x-x-x---x-x-x-x--x-x-x-x--x-x-x-x--x-x-x-x-|


  kheli    rahun jhai lagchha     tara yahaan                         Dukha

e|-1-1-1-1--1-1-1-1--1-1-1-1--1-1-1-1--3-3-3-3--3-3-3-3--3-3-3-3--3-3-3-3-|
B|-3-3-3-3--3-3-3-3--3-3-3-3--3-3-3-3--3-3-3-3--3-3-3-3--3-3-3-3--3-3-3-3-|
G|-2-2-2-2--0-0-0-0--0-0-0-0--0-0-0-0--0-0-0-0--0-0-0-0--0-0-0-0--0-0-0-0-|
D|-0-0-0-0--2-2-2-2--3-3-3-3--2-2-2-2--2-2-2-2--2-2-2-2--2-2-2-2--2-2-2-2-|
A|-x-x-x-x--x-x-x-x--x-x-x-x--x-x-x-x--3-3-3-3--x-x-x-x--3-3-3-3--x-x-x-x-|
E|-x-x-x-x--x-x-x-x--x-x-x-x--x-x-x-x--x-x-x-x--3-3-3-3--x-x-x-x--3-3-3-3-|

   
   byatha   haru     pani         bhognai parchha
   
e|-0-0-0-0--0-0-0-0--0-0-0-0--0-0-0-0---3-3-3-3--0-0-0-0--0-0-0-0--0-0-0-0-|
B|-3-3-3-3--3-3-3-3--3-3-3-3--3-3-3-3---3-3-3-3--2-2-2-2--0-0-0-0--2-2-2-2-|
G|-2-2-2-2--2-2-2-2--2-2-2-2--2-2-2-2---2-2-2-2--2-2-2-2--2-2-2-2--2-2-2-2-|
D|-3-3-3-3--3-3-3-3--3-3-3-3--3-3-3-3---2-2-2-2--2-2-2-2--2-2-2-2--2-2-2-2-|
A|-1-1-1-1--1-1-1-1--1-1-1-1--1-1-1-1---0-0-0-0--0-0-0-0--0-0-0-0--0-0-0-0-|
E|-x-x-x-x--x-x-x-x--x-x-x-x--x-x-x-x---x-x-x-x--x-x-x-x--x-x-x-x--x-x-x-x-|


  Herera             vitta pani        ma sahrai         sochirahanchhu

e|-2-2-2-2--2-2-2-2--2-2-2-2--2-2-2-2--0-0-0-0--0-0-0-0--0-0-0-0--0-0-0-0-|
B|-3-3-3-3--2-2-2-2--2-2-2-2--2-2-2-2--0-0-0-0--0-0-0-0--0-0-0-0--0-0-0-0-|
G|-2-2-2-2--2-2-2-2--4-4-4-4--2-2-2-2--0-0-0-0--0-0-0-0--0-0-0-0--0-0-0-0-|
D|-0-0-0-0--4-4-4-4--4-4-4-4--4-4-4-4--2-2-2-2--1-1-1-1--2-2-2-2--1-1-1-1-|
A|-x-x-x-x--x-x-x-x--x-x-x-x--x-x-x-x--2-2-2-2--2-2-2-2--2-2-2-2--2-2-2-2-|
E|-x-x-x-x--x-x-x-x--x-x-x-x--x-x-x-x--0-0-0-0--0-0-0-0--0-0-0-0--0-0-0-0-|


  jagerai            pani ma     sapani dekhchhu                     Sapani

e|-0-0-0-0--0-0-0-0--0-0-0-0--0-0-0-0--2-2-2-2--2-2-2-2--2-2-2-2--2-2-2-2-|
B|-2-2-2-2--2-2-2-2--2-2-2-2--2-2-2-2--3-3-3-3--2-2-2-2--2-2-2-2--2-2-2-2-|
G|-2-2-2-2--2-2-2-2--2-2-2-2--2-2-2-2--2-2-2-2--2-2-2-2--4-4-4-4--2-2-2-2-|
D|-2-2-2-2--2-2-2-2--2-2-2-2--2-2-2-2--0-0-0-0--4-4-4-4--4-4-4-4--4-4-4-4-|
A|-0-0-0-0--0-0-0-0--0-0-0-0--0-0-0-0--x-x-x-x--x-x-x-x--x-x-x-x--x-x-x-x-|
E|-x-x-x-x--x-x-x-x--x-x-x-x--x-x-x-x--x-x-x-x--x-x-x-x--x-x-x-x--x-x-x-x-|


  lai      singarchhu sajauchhu   Anayas feri                        Baasta-

e|-1-1-1-1--1-1-1-1--1-1-1-1--1-1-1-1--3-3-3-3--3-3-3-3--3-3-3-3--3-3-3-3-|
B|-3-3-3-3--3-3-3-3--3-3-3-3--3-3-3-3--3-3-3-3--3-3-3-3--3-3-3-3--3-3-3-3-|
G|-2-2-2-2--0-0-0-0--0-0-0-0--0-0-0-0--0-0-0-0--0-0-0-0--0-0-0-0--0-0-0-0-|
D|-0-0-0-0--2-2-2-2--3-3-3-3--2-2-2-2--2-2-2-2--2-2-2-2--2-2-2-2--2-2-2-2-|
A|-x-x-x-x--x-x-x-x--x-x-x-x--x-x-x-x--3-3-3-3--x-x-x-x--3-3-3-3--x-x-x-x-|
E|-x-x-x-x--x-x-x-x--x-x-x-x--x-x-x-x--x-x-x-x--3-3-3-3--x-x-x-x--3-3-3-3-|


   viktale  malai                Jhaskaidinchha                       Paaga-

e|-0-0-0-0--0-0-0-0--0-0-0-0--0-0-0-0---3-3-3-3--0-0-0-0--0-0-0-0--0-0-0-0-|
B|-3-3-3-3--3-3-3-3--3-3-3-3--3-3-3-3---3-3-3-3--2-2-2-2--0-0-0-0--2-2-2-2-|
G|-2-2-2-2--2-2-2-2--2-2-2-2--2-2-2-2---2-2-2-2--2-2-2-2--2-2-2-2--2-2-2-2-|
D|-3-3-3-3--3-3-3-3--3-3-3-3--3-3-3-3---2-2-2-2--2-2-2-2--2-2-2-2--2-2-2-2-|
A|-1-1-1-1--1-1-1-1--1-1-1-1--1-1-1-1---0-0-0-0--0-0-0-0--0-0-0-0--0-0-0-0-|
E|-x-x-x-x--x-x-x-x--x-x-x-x--x-x-x-x---x-x-x-x--x-x-x-x--x-x-x-x--x-x-x-x-|


   lako    avinay   garujhai lagchha tara feri                        Maana-

e|-1-1-1-1--1-1-1-1--1-1-1-1--1-1-1-1--3-3-3-3--3-3-3-3--3-3-3-3--3-3-3-3-|
B|-3-3-3-3--3-3-3-3--3-3-3-3--3-3-3-3--3-3-3-3--3-3-3-3--3-3-3-3--3-3-3-3-|
G|-2-2-2-2--0-0-0-0--0-0-0-0--0-0-0-0--0-0-0-0--0-0-0-0--0-0-0-0--0-0-0-0-|
D|-0-0-0-0--2-2-2-2--3-3-3-3--2-2-2-2--2-2-2-2--2-2-2-2--2-2-2-2--2-2-2-2-|
A|-x-x-x-x--x-x-x-x--x-x-x-x--x-x-x-x--3-3-3-3--x-x-x-x--3-3-3-3--x-x-x-x-|
E|-x-x-x-x--x-x-x-x--x-x-x-x--x-x-x-x--x-x-x-x--3-3-3-3--x-x-x-x--3-3-3-3-|


   vatalai  samjhi                uvinchhu ma                          Kahile

e|-0-0-0-0--0-0-0-0--0-0-0-0--0-0-0-0--3-3-3-3--0-0-0-0--0-0-0-0--0-0-0-0-|
B|-3-3-3-3--3-3-3-3--3-3-3-3--3-3-3-3--3-3-3-3--2-2-2-2--0-0-0-0--2-2-2-2-|
G|-2-2-2-2--2-2-2-2--2-2-2-2--2-2-2-2--2-2-2-2--2-2-2-2--2-2-2-2--2-2-2-2-|
D|-3-3-3-3--3-3-3-3--3-3-3-3--3-3-3-3--2-2-2-2--2-2-2-2--2-2-2-2--2-2-2-2-|
A|-1-1-1-1--1-1-1-1--1-1-1-1--1-1-1-1--0-0-0-0--0-0-0-0--0-0-0-0--0-0-0-0-|
E|-x-x-x-x--x-x-x-x--x-x-x-x--x-x-x-x--x-x-x-x--x-x-x-x--x-x-x-x--x-x-x-x-|


   kahi     (here comes the solo part...............)

e|-1-1-1-1--1-1-1-1--1-1-1-1--1-1-1-1--3-3-3-3--3-3-3-3--3-3-3-3--3-3-3-3-|
B|-3-3-3-3--3-3-3-3--3-3-3-3--3-3-3-3--3-3-3-3--3-3-3-3--3-3-3-3--3-3-3-3-|
G|-2-2-2-2--0-0-0-0--0-0-0-0--0-0-0-0--0-0-0-0--0-0-0-0--0-0-0-0--0-0-0-0-|
D|-0-0-0-0--2-2-2-2--3-3-3-3--2-2-2-2--2-2-2-2--2-2-2-2--2-2-2-2--2-2-2-2-|
A|-x-x-x-x--x-x-x-x--x-x-x-x--x-x-x-x--3-3-3-3--x-x-x-x--3-3-3-3--x-x-x-x-|
E|-x-x-x-x--x-x-x-x--x-x-x-x--x-x-x-x--x-x-x-x--3-3-3-3--x-x-x-x--3-3-3-3-|
Tap to rate this tab
 
# A B C D E F G H I J K L M N O P Q R S T U V W X Y Z