Song name
# A B C D E F G H I J K L M N O P Q R S T U V W X Y Z

Sunk Loto - Blunt tab

----------------------------------------------------------------------------
			     BLUNT - Sunk Loto
----------------------------------------------------------------------------
Tabbed by: Antacidist2
Email: haywire70@hotmail.com

Tuning: Db,Ab,Db,Gb,Bb,eb

  First bit of intro
eb|-----------|
Bb|-----------|
Gb|--x/////---|
Db|--x/////---|pick scrapes for the intro
Ab|--x/////---|
Db|--x/////---|
    

  Second bit of intro
eb|------------------------|
Bb|------------------------|
Gb|------------------------|
Db|------------------------|
Ab|------0-0---0-5-0-5-6---|
Db|--3\2-0-0---0-5-0-5-6---|
  

  Verse
eb|------------------------------------------------|
Bb|--8-8-8---8-8-8---8-8-----8-8-8---8-8-8---8-8---|
Gb|--7-7-7---7-7-7---7-7-----7-7-7---7-7-7---7-7---|
Db|------------------------------------------------|
Ab|------------------------------------------------|
Db|------------------------------------------------|

  Chorus
eb|--------------------------------------------------|
Bb|--------------------------------------------------|
Gb|--------------------------------------------------|
Db|--0--0-0-0--1--1-1-1--3--3-3-3--1--1-1-1----------|
Ab|--0--0-0-0--1--1-1-1--3--3-3-3--1--1-1-1----------|
Db|--0--0-0-0--1--1-1-1--3--3-3-3--1--1-1-1----------|

  Bass Riff in Bridge
Gb|-----------------------|
Db|--------------5--7-----|
Ab|--5-----5--6-----------|
Db|-----7-----------------|

  First part of bridge
eb|--10-10---10-10---10-10---|
Bb|--------------------------|
Gb|--------------------------|
Db|--------------------------|
Ab|--------------------------|
Db|--------------------------|

  Second part of bridge
eb|-----------------------------|
Bb|-----------------------------|
Gb|-----------------------------|
Db|-----------------------------|
Ab|--5h6-5-3--3h5-3-2--2h3-2-0--|
Db|--5h6-5-3--3h5-3-2--2h3-2-0--|

I'm sure you can figure out the layout any questions or comments please 
e-mail me.
Scratch.

| /  slide up
| \  slide down
| h  hammer-on
| p  pull-off
| ~  vibrato
| +  harmonic
| x  Mute note
============================================================================
Tap to rate this tab
# A B C D E F G H I J K L M N O P Q R S T U V W X Y Z